Beach Boys - California Girls Chords & Tabs

 

Beach Boys Chords & Tabs

Version: 3 Type: Bass Tab 0 ratings
1 star 2 stars 3 stars 4 stars 5 stars
comments

California Girls Bass Tab

the tempo starts at 116, the bass comes in after about 4 bars.

G|--------------------|----------------------|------------------|
D|-------7------------|----------------------|--------6---------|
A|----------------9---|-----7-----6--------9-|---------------9--|
E|-7-----------7------|--7-------------7-----|----7-------7-----|

G|--------------------|----------------------|------------------|
D|--------------------|------6---------------|------------------|
A|----7-----6---------|---------------9------|-----7----6-------|
E|-7-----------7---9--|--7--------7----------|--7----------7--9-|

G|--------------------|----------------------| Thats the intro, 
D|------4-------------|----------------------| speed up to 120
A|--------------7-----|-----5----4------4----|
E|-5-------5----------|--5-----------5-------|

G|------------------------|
D|#------6-----------6----| Play this 6 times, i find it easy if you 
A|#---9-----9-----9-----9-| use that finguring.
E|-7-----------7----------|
   
   2  4  1  4  2  4  1  4

G|----------------------|-----------------------|----------------------
D|----------------------|-----------------------|----------------------
A|---2--4--2-----2--4--2|----2--4--2---2--4--2--|---4--6--4----4--6--4-
E|-0----------0---------|--0---------0----------|-2----------2---------
[ Tab from: http://www.guitartabs.cc/tabs/b/beach_boys/california_girls_btab_ver_3.html ]
G|------------------------ then repeat from the hashes 
D|------------------------#
A|----4--6--4----4--6--4--#
E|-2----------2-----------

G|---------------------|-------------------|------------------------
D|---------------------|-------------------|------------------------
A|---------------------|-------------------|------------------------
E|---2----------2---2--|---7---7---7---7---|---9---9---9---9--------

G|-----------------|-------------------|----------------------------
D|-----------------|-------------------|----------------------------
A|-----------------|-------------------|----------------------------
E|--5---5---5---5--|---7---7---7---7---|---3---3---3---3------------

G|----------------|
D|----------------|
A|----------------|
E|-5---5---5---5--|

G|------------------------|
D|-------6-----------6----| Play this 4 times 
A|----9-----9-----9-----9-| 
E|-7-----------7----------|


G|--------------------------|
D|-11-----8-----------------|This bit just leads you into the outro
A|------------11---9--7--6--|
E|--------------------------| 

G|----------------------|-----------------|-----------------------|
D|#-------6---------6---|-----6-------6---|-----------------------|
A|#----9----9----9----9-|---9---9---9---9-|---9--11--9--9--11--9--|
E|---7--------7---------|-7-------7-------|-9----------9----------|

G|-----------------------| 
D|--11----8-------------#| reapeat 3 times and fade out.
A|----------11--9--7--6-#|
E|9----------------------|


Thats it, hope it makes sense.
Comments