Beach Boys - California Girls Chords & Tabs

 

Beach Boys Chords & Tabs

Version: 1 Type: Bass Tab 0 ratings
1 star 2 stars 3 stars 4 stars 5 stars
comments

California Girls Bass Tab

   
Artist: The Beach Boys

Song Title: California Girls

Released: 1960's

Tabber: Jordan Waters

Tuning: E A D G

      Intro (Listen to song and you'll pick up quick)

     E				    A
[-----1-------------------------|-----------------------------------]
[-------------4------2-1--------|-------4------2-----0--------------] x2
[--2------2-------2-------2---4-|---0-------0-----0-----4--0--4-----]
[-------------------------------|-----------------------------------]

      "VERSE"
  
     Bb                         Bb                    Bb
[----------------------------|--------------------------------------]
[----------------------------|--------------------------------------]
[--1------------1------------|--1------1------1------1------1-------]
[---1---3---1----1---3---1---|---1-3-1--1-3-1--1-3-1--1-3-1--1-3-1--]

    Bb                    Eb                             Fb
[-----------------------|-----------------------------|--------------]
[-----------------------|-1------1------1------1------|-2------2-----]
[-1------1------1-------|--1-3-1--1-3-1--1-3-1--1-3-1-|--2-4-2--2-4-2]
[--1-3-1--1-3-1--1-3-1--|-----------------------------|--------------]

   Fb             Bb                     Bb
[--------------|-----------------------------------------------------]
[-2------2-----|-----------------------------------------------------]
[--2-4-2--2-4-2|-1------1------1------1------1------1------1---------]
[--------------|--1-3-1--1-3-1--1-3-1--1-3-1--1-3-1--1-3-1--1-3-1----]
[ Tab from: http://www.guitartabs.cc/tabs/b/beach_boys/california_girls_btab.html ]
             Eb             Fb
[--------|-----------------------------------------------------------]
[--------|-1------1------1------1-------2------2------2--22-22-2-----]
[-1------|--1-3-1--1-3-1--1-3-1--1-3-1---2-4-2--2-4-2----------------]
[--1-3-1-|-----------------------------------------------------------]

    "CHORUS"    
       Bb         Cb               Db                 Gb
[-|------------------------------------------------------------------]
[-|------------------------------------------------------------------]
[-|1--1--1--1--2--2--2--2--4--4--4--4--4--4--4--4--------------------]
[-|------------------------------------------------3--3--3--3--------]
      

       Cb
[------------|-------------------------------------------------------]
[------------|-------------------------------------------------------]
[-2--2--2--2-|---(Back to beggining of verse)------------------------]
[------------|-------------------------------------------------------]
 

 And  yet another simple Beach Boys tab pattern.It always looks 
complicated but if you have the music it's very simple.

Heres the order

Intro

Verse

Chorus

Verse

Chorus (after end of second chorus play this)
         Bb                              Eb
[-------------------------------------------------------------------]
[-----------------------------1------1------1------1----------------]
[-1------1------1------1-------1-3-1--1-3-1--1-3-1--1-3-1-----------]
[--1-3-1--1-3-1--1-3-1--1-3-1---------------------------------------]

Questions Comments--> J_lumpy15@hotmail.com

Comments