Be Your Own Pet - Fire Department Chords & Tabs

 

Fire Department Chords & Tabs

Be Your Own Pet Chords & Tabs

Version: 2 Type: Tab

Fire Department Tab

I added and updated missing parts from the tab seen on the site. IT'S RIGHT.

Intro

e|------------------------------------------------|
B|------------------------------------------------|
G|------------------------------------------------|
D|------------------------------------------------|
A|------------------------------------------------|
E|-/7-7-7-7-7-\7-0-0-33-2-/7-7-7-77-7-\7-0-0-33-2-|


Verse

e|-7-----0-----------------7-----0-----0-----------------|
B|-7-----0-----------------7-----0-----0-----------------|
G|-8-----1-----------------8-----1-----1-----------------|
D|-9-x4--2-x2--5-x2--4-x1--9-x5--2-x2--2-x2--5-x2--4-x2--|
A|-9-----2-----5-----2-----9-----2-----2-----5-----4-----|
E|-7-----x-----3-----2-----7-----x-----x-----3-----2-----|


Chorus
[ Tab from: http://www.guitartabs.cc/tabs/b/be_your_own_pet/fire_department_tab_ver_2.html ]
e|-0-----------------7-----------8-------7------8-------7-----0------|
B|-0-----------------7-----------8-------7------8-------7-----0------|
G|-1--------------5--8-----------9-------8------9-------8-----1------|
D|-2-x5--5--7-x5--6--9-x16-[x2]--10-x16--9-x16--10-x16--9-x2--2--x2--|
A|-2-----5--7-----6--9-----------10------9------10------9-----2------|
E|-x-----3--5-----4--7-----------8-------7------8-------7-----x------|


Fill 1

e|--------------------------------------------------------------------------------------------|
B|--------------------------------------------------------------------------------------------|
G|--------------------------------------------------------------------------------------------|
D|--------------------------------------------------------------------------------------------|
A|--4-7-4-7-4-7-4-7---7---7---7---7--x2--44-77-44-77-44-77-44-77----77----77----77----77--x2--|
E|------------------5---5---5---5--------------------------------55----55----55----55---------|

e|---------------------------------------------------------------------------0-----------------0--|
B|---------------------------------------------------------------------------0-----------------0--|
G|---------------------------------------------------------------------------1-----------------1--|
D|---------------------------------------------------------------------------2-x8--3-x4--4-x4--2--|
A|-2--2--0-1-2-2--0-1-2-2--0-1-2-2---------------------x2---2-2-[bass fill]--2-----5-----2-----2--|
E|---------------------------------0-0--0-0--3-3--2-2------------------------x-----5-----2-----x--|