Be Bop Deluxe - Maid In Heaven Chords & Tabs

 

Maid In Heaven Chords & Tabs

Be Bop Deluxe Chords & Tabs

Version: 1 Type: Tab 0 ratings
1 star 2 stars 3 stars 4 stars 5 stars
comments

Maid In Heaven Tab

Maid In Heaven
Be Bop Deluxe


HAVE YOU EVER HAD IT WHEN YOU REALLY LIKE A SONG BUT Cant find tabs for it anywhere, well i had
that problem so i decided to tab it myself. This is my first tab so be nice.


Regular tuning (EADGBe)

THE STRUMMING PATTERN MIGHT NOT BE PERFECT BUT IM SURE YOU CAN WORK IT OUT

--------------------------------------------------------------|
--------------------------------------------------------------|
-----------7---------------------7----------------------------|
--3--------7-7--7-7-7---3--------7-7--7-7-7---3-----5---------|
--3--------5-7--7-7-7---3--------5-7--7-7-7---3-----5---------|
--1---X8-----5--5-5-5---1---X8-----5--5-5-5---1-X8--3-X8------|

---12p10----14p10----12p10----14p10----12p10----10p14---------|
10-------10-------10-------10-------10-------10---------------|
------------------------------------------------------X2------|
--------------------------------------------------------------|
--------------------------------------------------------------|
--------------------------------------------------------------|


------------------------|
---------12--1ST TIME---|
---10-11----------------|
------------------------|
------------------------|
------------------------|


------------------------|
-------------2ND TIME---|
---10-11----------------|
---------9--------------|
------------------------|
------------------------|


---------------------------17^--|
---------------------10/15------|
----------------9/14------------|
-THEN---7-7/12------------------|
--------------------------------|
--------------------------------|

MIDDLE BIT

--------------|
--2--3--2--3--|
--2--2--2--2--|
--2--2--2--2--|
--------------|
--------------|

VERSE
[ Tab from: http://www.guitartabs.cc/tabs/b/be_bop_deluxe/maid_in_heaven_tab.html ]
--5-5-5--X-X--2--2--2--0--3--2---------3--------------------------------------------------------|
--7-5-5--X-X--3--2--3--2--3--3---------3--------------------------------------------------------|
--7-6-4--X-X--4--2--4--2--0--2---------0-------2-----2-----0-------------2-----2-----0----------|
--7-7-5--X-X--4--4--4--2--0--0---------0---0-4-----2-----0-------0---0-4-----2-----0-------0----|
--5-7-5--X-X--2--4--2--0--2--0---------2---------4-----2-------2-----------4-----2-------2------|X2
----5-3--X-X--2--2--2--0--3-----0-2-3--3---------------------3-------------------------3--------|

2ND TIME
----------------------------------------------------|
----------------------------------------------------|
------2-----2-----0------------2-----2-----0--------|
--0-4-----2-----0-------0--0-4-----2-----0----------|
--------4-----2-------2----------4-----2------------|
--------------------3------------------------3-2-0--|

CHORUS

--0--3--2--2--0--3--2--2--0--3--3--2--3--0--|
--0--3--3--2--0--3--3--2--0--3--3--2--3--2--|
--0--0--2--2--0--0--2--2--0--0--2--2--0--2--|
--2--0--0--4--2--0--0--4--2--0--0--4--0--2--|then back to middle bit
--2--2--0--4--2--2--0--4--2--2--0--4--2--0--|
--0--3-----2--0--3-----2--0--3-----2--3-----|


VERSE 2

SAME AS VERSE 1 HOWEVER YOU MISS OUT THE ---X--X---| BIT THE FIRST TIME
                     ---X--X-----------------------|
                     ---X--X-----------------------|
                     ---X--X-----------------------|
                     ---X--X-----------------------|
                         ---X--X-------------------|
THEN YOU ADD

---2---------3--2---------3--2---------3---|
---3---------3--3---------3--3---------3---|
---2---------0--2---------0--2---------0---|
---0---------0--0---------0--0---------0---|
---0---------2--0---------2--0---------2---|
------0-2-3--3-----0-2-3--3-----0-2-3--3---|

THE SECOND TIME


WITH ------------------------------------------2--------------------|
     ------------------------------------------3--------------------|
     -------2-----2-----0-----2----------------2--------------------|
     ---0-4-----2-----0-----2-------0-----0----0--------------------|
     ---------4-----2-----0-------2-----0------0--------------------|
     ---------------------------3-----2-----0-----------------------|


I HAVENT WORKED OUT THE SOLO AS OF YET BUT HERES THE CHORD PATTERN IN THE BACKGROUND

--5--5--3--5--5--3--5--5--3--5--5--7--5--3--2--0--5--|
--7--5--3--7--5--3--7--5--3--7--5--7--5--3--2--0--7--|
--7--6--4--7--6--4--7--6--4--7--6--8--6--4--3--1--7--|
--7--7--5--7--7--5--7--7--5--7--7--9--7--5--4--2--7--|
--5--7--5--5--7--5--5--7--5--5--7--9--7--5--4--2--5--|
-----5--3-----5--3-----5--3-----5--7--5--3--2--0-----|


IF YOU HAVE ANY PROBLEMS THEN EMAIL ME AT matt@leesehold.co.uk
Comments