Bbs Paranoicos - Ruidos Chords & Tabs

 

Ruidos Chords & Tabs

Bbs Paranoicos Chords & Tabs

Version: 1 Type: Tab 0 ratings
1 star 2 stars 3 stars 4 stars 5 stars
comments

Ruidos Tab

      -------------------------------------------------------- 
                    Ruidos - Bbs Paranoicos
      --------------------------------------------------------




 * - p.m (palm mute)    : - let ring
 x - scratch            . - pause 
 b - bend 
 r - return
 




+ Sabes que fue lo que hiciste...
e|----------------------------------|
B|----------------------------------|
G|--8888-7777--5-7--8888-7777-------| 
D|--8888-7777-7---7-8888-7777-5555--|
A|--6666-5555-------6666-5555-5555--|
E|----------------------------3333--|
     ***  ***        ***  ***  *** 


+ Y sigues dando vuelta al cuento...
e|---------------------------------------|
B|---------------------------------------|
G|--8888-7777--5-7--8888-7777------------| 
D|--8888-7777-7---7-8888-7777-5b6r5b6r5--|
A|--6666-5555-------6666-5555-5b6r5b6r5--|
E|----------------------------3b4r3b4r3--|
     ***  ***        ***  ***   


+ Te recuerdo, mis intentos...
e|----------------------------------|
B|----------------------------------|
G|--55555-------88888-----444-------|
D|--55555-66666-88888-888-444-(x2)--| 
A|--33333-66666-66666-888-222-------|
E|--------44444-------666-----------|



+ Es esa euforia o desconsuelo...
e|----------------------------------|
B|----------------------------------|
G|--8888-7777--5-7--8888-7777-------| 
D|--8888-7777-7---7-8888-7777-5555--|
A|--6666-5555-------6666-5555-5555--|
E|----------------------------3333--|
     ***  ***        ***  ***  *** 

[ Tab from: http://www.guitartabs.cc/tabs/b/bbs_paranoicos/ruidos_tab.html ]
+ Me encuentro con esta sorpresa...
e|--------------------------------|
B|--------------------------------|
G|--8888-7777--5-7--8888-7777-----| 
D|--8888-7777-7---7-8888-7777-5.--|
A|--6666-5555-------6666-5555-5.--|
E|----------------------------3.--|
     ***  ***        ***  ***  


+ Te recuerdo, mis intentos...
e|----------------------------------|
B|----------------------------------|
G|--55555-------88888-----444-------|
D|--55555-66666-88888-888-444-(x2)--| 
A|--33333-66666-66666-888-222-------|
E|--------44444-------666-----------|


+ Imposible comprender...
e|----------------------------|
B|----------------------------|
G|-----8:----5--------8:------|
D|--6:-8:-5:-5-8:--6:-8:-55.--|
A|--6:-6:-5:-3-8:--6:-6:-55.--|
E|--4:----3:---6:--4:----33.--|


+ Solo


+ no, no es indigno...
e|---------------------------------------|
B|---------------------------------------|
G|-5xxx5xxx-----------88888-------44444--|
D|-5xxx5xxx-6666-(x3)-88888-88888-44444--|
A|-3xxx3xxx-6666------66666-88888-22222--|
E|----------4444------------66666--------|


+ Te recuerdo, mis intentos...
e|----------------------------------|
B|----------------------------------|
G|--55555-------88888-----444-------|
D|--55555-66666-88888-888-444-(x2)--| 
A|--33333-66666-66666-888-222-------|
E|--------44444-------666-----------|


e|---------|
B|---------|
G|---------|
D|---------|
A|-7-6-0:--|
E|---------|


+ Tabber

+ Felipe Silva
+ Santiago, Chile
+ 15

+ pipe_@walla.com
Comments