Bbs Paranoicos - Calla Y Espera Chords & Tabs

 

Calla Y Espera Chords & Tabs

Bbs Paranoicos Chords & Tabs

Version: 1 Type: Tab 0 ratings
1 star 2 stars 3 stars 4 stars 5 stars
comments

Calla Y Espera Tab

        -------------------------------------------------------- 
                    Calla y Espera - Bbs Paranoicos
        --------------------------------------------------------


 * - p.m (palm mute)
 / - slide
 : - let ring



+ Calla...
e|--------------------------------------|
B|--------------------------------------|
G|--------77777-------------------------|
D|--99999-77777-22222-55555-44444-(x2)--|
A|--99999-55555-22222-55555-44444-------|
E|--77777-------00000-33333-22222-------|
    *****************************


+ no, no, no, calla!...
e|--------------------------------|
B|--------------------------------|
G|------67-----67-7777------------|
D|--999-67-555-67-7777-7777-(x2)--|
A|--999-45-555-45-5555-7777-------|
E|--777----333---------5555-------|



+ de que sirve una verdad...
e|---------------------------------------|
B|---------------------------------------|
G|--888-666-888-666----------------------|
D|--888-777-888-777-9999-(x2)-5555-7777--|
A|--666-555-666-555-9999------5555-7777--|
E|------------------7777------3333-5555--|



+ Lanzas, con miedo en tu mirar...
e|--------------------------------------|
B|--------------------------------------|
G|--------77777-------------------------|
D|--99999-77777-22222-55555-44444-(x2)--|
A|--99999-55555-22222-55555-44444-------|
E|--77777-------00000-33333-22222-------|
    *****************************

[ Tab from: http://www.guitartabs.cc/tabs/b/bbs_paranoicos/calla_y_espera_tab.html ]
+ no, no, no calla!...
e|--------------------------------|
B|--------------------------------|
G|------67-----67-7777------------|
D|--999-67-555-67-7777-7777-(x2)--|
A|--999-45-555-45-5555-7777-------|
E|--777----333---------5555-------|



+ de que sirve una verdad...
e|---------------------------------------|
B|---------------------------------------|
G|--888-666-888-666----------------------|
D|--888-777-888-777-9999-(x2)-5555-7777--|
A|--666-555-666-555-9999------5555-7777--|
E|------------------7777------3333-5555--|



Solo
e|------------------------------------------9----------|
B|-----------11------------------------11-13-11--------|
G|--11-10--13--11-10-8---------------10--------10-8-6--|
D|-------11-----------8/13-15-11-10-8------------------|
A|-----------------------------------------------------|
E|-----------------------------------------------------|

e|----------------------------13-14-13--16--------------------|
B|--18-16-14-18-16-18-16-14-16--------14--14-13--16-14-13-----|
G|-------------------------------------------------------14:--|
D|------------------------------------------------------------|
A|------------------------------------------------------------|
E|------------------------------------------------------------|


+ no, no, no calla!...
e|--------------------------------|
B|--------------------------------|
G|--------------77777-------------|
D|--99999-55555-77777-77777-(x3)--|
A|--99999-55555-55555-77777-------|
E|--77777-33333-------55555-------|



+ Outro
e|-----------|
B|-----------|
G|-----------|
D|--77-8-9:--|
A|--77-8-9:--|
E|--55-6-7:--|



+ Tabber

+ Felipe Silva
+ Santiago, Chile
+ 15

+ pipe_@walla.com
Comments