Bbmak - Still On Your Side Chords & Tabs

 

Still On Your Side Chords & Tabs

Bbmak Chords & Tabs

Version: 1 Type: Tab 0 ratings
1 star 2 stars 3 stars 4 stars 5 stars
comments

Still On Your Side Tab

BBMak "Still On Your Side".
Tabbed by Bonehed86@aol.com.
  
Hey guys! I was waiting for this song to be tabbed for a long time and it never happened so im tabbing it myself. 
Its in standard tuning and listen for strumming patterns.

Intro: (Not sure if its right,strum each)
e---------------------------------
b-7------7---7---4---5---7---7---5
g-6------6---6---3---4---6---6---4
d-4-(x4)-4---4---1---2---4---4---2
a-x------6---x---3---x---6---x---x
e-6----------6-------4-------6---4

Verse: (strum this over and over again)
e---------
b---7-----
g---6-----
d---4-----
a---------
e---------
[ Tab from: http://www.guitartabs.cc/tabs/b/bbmak/still_on_your_side_tab.html ]
Chorus: (strum each)         End Chorus with:
e--------------             e----------  
b-7---7---4---5             b-7---7---5
g-6---6---3---4 (repeat 3)  g-6---6---4
d-4---4---1---2             d-4---4---2
a-6---x---3---x             a-6---x---x
e-----6-------4             e-----6---4

Bridge: (strum and let ring, listen to song to get it)
e--------------------------
b-5--7--5--7--5--7--7--5--4
g-4--6--4--6--4--6--6--4--3
d-2--4--2--4--2--4--4--2--1
a-x--6--x--6--x--6--x--x--3
e-4-----4-----4-----6--4---

The rest is just the chorus over again until it faids out. That all! If you have any questions or comments email me at Bonehed86@aol.com. Tabbed by Ryan H. 
:: Ultimate Guitar Archive :: 
http://www.ultimate-guitar.com 

Comments