Bbmak - Never Gonna Give You Up Chords & Tabs

 

Never Gonna Give You Up Chords & Tabs

Bbmak Chords & Tabs

Version: 1 Type: Chords 0 ratings
1 star 2 stars 3 stars 4 stars 5 stars
comments

Never Gonna Give You Up Chords

   
Artist: BBMak
Title : Never gonna give you up
Album : Out Of My Heart (Into Your Head)

Tabbed by Frances Low
Recommended Chords:
Chord......eadgbE
Em.........022000
C..........032010
G..........320003
Dsus.......xx0233
D..........x00232
C/D........032033
Am7........x02010
D/E........2x0230


Intro:    Em    C    G    C
          Em    C    G    C

Verses:        Never gonna give you up      Never gonna...
          Em    C                      G    C
          Em    C    G    F


also being played on top of that: (another guitar)

   Em         C            G          C
E------------------------------------------------------
B------------------------------------------------------
G--------0------------0----------0-------------0-------
D------2----------2------------0-----------2-----------
A----2--------3--------------2---------3---------------
E--0-----------------------3---------------------------


Em            C            G             C
E------------------------------------------------------
B------------------------------------------------1-----
G--------0------------0----------0-----------2---------
D------2----------2------------0---------3-------------
A----2--------3--------------2-------------------------
E--0-----------------------3---------------------------

[ Tab from: http://www.guitartabs.cc/tabs/b/bbmak/never_gonna_give_you_up_crd.html ]
Chorus:   (different rhythm)
           Em     C     G     Dsus D
           Em     C     G     Dsus D
           Em     C     G     Dsus D
           Em     C     G     Dsus D

Also played on top of that ONLY on 1st chorus
~Repeat until chorus ends
E--0---0---2---2---3---3---2---2-----------------------
B----0---0---0---0---0---0-----------------------------
G----------------------------2---2---------------------
D------------------------------------------------------
A------------------------------------------------------
E------------------------------------------------------

Played on top of 2nd chours
~Repeat until 2nd chorus ends
E--0---0---2---2---3---5---3---2-----------------------
B----0---0---0---0---0---0-----------------------------
G----------------------------2---2---------------------
D------------------------------------------------------
A------------------------------------------------------
E------------------------------------------------------

Bridge:   C    G    C    G    D/E
          Em   A    Am7  C    C/D

End riff (along w/ chorus chords)
E--0---0---2---2---3---5---3---2---0---0---3---2-------
B----0---0---0---0---0---0-----------0---0---0---0--3--
G----------------------------2---2---------------------
D------------------------------------------------------
A------------------------------------------------------
E------------------------------------------------------
Comments