Bbmak - Back Here Chords & Tabs

 

Back Here Chords & Tabs

Bbmak Chords & Tabs

Version: 1 Type: Tab 0 ratings
1 star 2 stars 3 stars 4 stars 5 stars
comments

Back Here Tab

   
Artist: Bbmak
Song: Back here ( acoustic solo version)
dl this on kazaa ...at the end they do this awesome acoustic
very easy to play
Tabbed by Darlene J.
Email: dj8008@hotmail.com

Bbmak solo in acoustic version
^b= bend up

   Play 2x
E----------------------------------------------------0-------|
B-8-10-10-12-12-12-12-12-12^b-10-8-10-12-10-8-10--8----3-----|
G------------------------------------------------------------|
D------------------------------------------------------------|
A------------------------------------------------------------|
E------------------------------------------------------------|
[ Tab from: http://www.guitartabs.cc/tabs/b/bbmak/back_here_tab.html ]
E------------------------------------------------------------|
B1010-10-12-12-12-12-12-12^b-10-8-10-12-10-8-----------------|
G------------------------------------------------------------|
D------------------------------------------------------------|
A------------------------------------------------------------|
E------------------------------------------------------------|

After u play the above twice it goes
/=slide
h=hold


E------------------------------------------------------------|
B---------3h-----------3-5-3--/--10-8h-----------------------|
G-2-/-4--------2-/-4-----------------------------------------|
D------------------------------------------------------------|
A------------------------------------------------------------|
E------------------------------------------------------------|
Comments