Bbmak - Always Chords & Tabs

 

Always Chords & Tabs

Bbmak Chords & Tabs

Version: 1 Type: Tab 0 ratings
1 star 2 stars 3 stars 4 stars 5 stars
comments

Always Tab

E--------0---------------0---------------0---------------0----------
B------0---0-----------0---0-----------0---0-----------0---0--------
G----2-------2---2---2-------2---2---1-------1---1---1-------1---0--
D--4-----------4---2-----------2---2-----------2---2-----------2----
A-------------------------------------------------------------------
E-------------------------------------------------------------------
   2x

[ Tab from: http://www.guitartabs.cc/tabs/b/bbmak/always_tab.html ]
E--------2--------------2--------------0---------------0------------
B------0---0-----------0-0-----------0---0-----------0---0----------
G----2-------2---2---2-----2--0----1-------1---1---1-------1---0----
D--------------------------------2-----------2---2-----------2------
A--2-----------2---2---------2--------------------------------------
E-------------------------------------------------------------------
   2x


E--------1-----------1---------------0--------------0---------------
B------1--1---------1--1-----------1---1----------1---1-------------
G----3-----3--3---3------3---0---0-------0--0---0-------0----0------
D-------------------------------------------------------------------
A--1---------1--1----------1---3-----------3--3-----------3---------
E-------------------------------------------------------------------


E------1----------------1----------1---
B-----1--1------------1---1--------1---
G----3-----3---3----3-------3------3---
D----------------------------------3---
A--1---------1----1-----------1----1---
E--------------------------------------
Comments