Bb King - The Thrill Is Gone Live Chords & Tabs

 

The Thrill Is Gone Live Chords & Tabs

Bb King Chords & Tabs

Version: 1 Type: Bass Tab 0 ratings
1 star 2 stars 3 stars 4 stars 5 stars
comments

The Thrill Is Gone Live Bass Tab

   
The_Thrill_Is_Gone(live at the apollo).btab
B.B_King
TablEdited by Poppamies
Tuning : E A D G 	Time Signature: 4/4  tempo 104

 | intro |       |       |        |       |       |       |        
|--------------------------------|--------------------------------|
|--------------------------------|--------------------------------|
|----------------------------2---|3---3-----------------------2---|
|--------------------------------|------------2---3---3-----------|

 |       |       |       |        |       |       |       |        
|--------------------------------|--------------------------------|
|----------------------------2---|3---3-----------------------2---|
|3---3---------------------------|------------2---3---3-----------|
|------------2---3---3-----------|--------------------------------|

 |       |       |       |        |       |       |       |        
|--------------------------------|--------------------------------|
|3---3-------------------1---0---|--------------------------------|
|------------2---3---3-----------|3---3-----------------------2---|
|--------------------------------|------------2---3---3-----------|

 |       |       |       |        |       |       |       |        
|--------------------------------|1---1-----------1---1-----------|
|--------------------------------|------------1---------------1---|
|3---3-------------------3---1---|--------------------------------|
|------------2---3---3-----------|--------------------------------|

 |       |       |       |        |       |       |       |        
|0---0---------------------------|--------------------------------|
|------------0-------------------|--------------------------------|
|------------------------1---2---|3---3-----------------------2---|
|----------------3---3-----------|------------2---3---3-----------|

 |       |       |       |        |The thrill is gone...               
|--------------------------------|--------------------------------|
|--------------------------------|--------------------------------|
|3---3-----------1---1---2---2---|3---3-----------------------2---|
|--------3---3-------------------|------------2---3---3-----------|

 |       |       |       |        |       |       |       |        
|--------------------------------|--------------------------------|
|--------------------------------|--------------------------------|
|3---3-----------------------2---|3---3-----------------------2---|
|------------2---3---3-----------|------------2---3---3-----------|

 |       |       |       |        |       |       |       |        
|--------------------------------|--------------------------------|
|----------------------------2---|3---3-----------------------2---|
|3---3---------------------------|------------2---3---3-----------|
|------------2---3---3-----------|--------------------------------|
[ Tab from: http://www.guitartabs.cc/tabs/b/bb_king/the_thrill_is_gone_live_btab.html ]
 |       |       |       |        |       |       |       |        
|--------------------------------|--------------------------------|
|3---3-------------------1---0---|--------------------------------|
|------------2---3---3-----------|3---3-----------------------2---|
|--------------------------------|------------2---3---3-----------|

 |       |       |       |        |       |       |       |        
|--------------------------------|1---1-----------1---1-----------|
|--------------------------------|------------1---------------1---|
|3---3-------------------3---1---|--------------------------------|
|------------2---3---3-----------|--------------------------------|

 |       |       |       |        |       |       |       |        
|0---0---------------------------|--------------------------------|
|------------0-------------------|--------------------------------|
|------------------------1---2---|3---3-----------------------2---|
|----------------3---3-----------|------------2---3---3-----------|

 |       |       |       |        |       |       |       |        
|------------0---3---3---4---4---|5---5-----------0---0-------4---|
|--------------------------------|------------3-------------------|
|3---3---------------------------|--------------------------------|
|--------------------------------|--------------------------------|

 |       |       |       |        |       |       |       |        
|5---5-----------0---0-------4---|5---5-----------0---0-------4---|
|------------3-------------------|------------3-------------------|
|--------------------------------|--------------------------------|
|--------------------------------|--------------------------------|

 |       |       |       |        |       |       |       |        
|5---5-----------0---0-----------|--------------------------------|
|------------3---------------2---|3---3-----------------------2---|
|--------------------------------|------------2---3---3-----------|
|--------------------------------|--------------------------------|

 |       |       |       |        |       |       |       |        
|--------------------------------|----------------0---0-------4---|
|3---3-------------------1---0---|------------3-------------------|
|------------2---3---3-----------|3---3---------------------------|
|--------------------------------|--------------------------------|

 |       |       |       |        |       |       |       |        
|5---5-----------0---0---5---3---|1---1-----------1---1-----------|
|------------3-------------------|------------1---------------1---|
|--------------------------------|--------------------------------|
|--------------------------------|--------------------------------|

 |       |       |       |        |       |       |       |        
|0---0---0-------0---0---3---4---|5---5-----------0---0-------4---|
|------------0-------------------|------------3-------------------|
|--------------------------------|----------  and so on...--------|
|--------------------------------|--------------------------------|

Transcribe! 6.0 transcription http://www.seventhstring.demon.co.uk/
Created with TablEdit http://www.tabledit.com/
http://www.geocities.com/jani_bjorklund/janis.html?1058405404377
Comments