Bb King - Sweet Little Angel How Blue Can You Get Chords & Tabs

 

Sweet Little Angel How Blue Can You Get Chords & Tabs

Bb King Chords & Tabs

Version: 1 Type: Tab 0 ratings
1 star 2 stars 3 stars 4 stars 5 stars
comments

Sweet Little Angel How Blue Can You Get Tab

Band Name: BB King
Song Name: Sweet little angel how blue can you get?
Tabbed By: Terry Sims (Masterofdarknes)
Email: Floyd_Fan@teenspot.com

Tuning: Normal

Intro solo

|---------------------9-----------------------------------------------|
|--------14--16--(18)-9-------12(14)----9-----------------------------|
|--13-15--------------10------------------11-9----8--------------7/9--|
|---------------------11-----------------------11---11-11---8-11-8/10-|
|---------------------------------------------------------11----------|
|---------------------------------------------------------------------|

|------------------------9-----------------------------9-------12----|
|----------------9------9-----12--9------9-----------9---14-------14-|
|-----------8/10------10-------------11-----9--10--------------------|
|-----8--11---------11-----------------------------------------------|
|--11----------------------------------------------------------------|
|--------------------------------------------------------------------|

|--14--12-(13)-14-14-(16)-12----------14-(15)-(14)12--------12-14(16--|
|----------------------------14-14--14--------------14-11-14----------|
|---------------------------------------------------------------------|
|---------------------------------------------------------------------|
|---------------------------------------------------------------------|
|---------------------------------------------------------------------|

|--14(16)--------------------------9-----------------12-13-----------|
|--------------------------------9---14------14-14---------14--------|
|------------11/13\12-11-10------------------------------------------|
|--------------------------11----------------------------------------|
|----------------------------11--------------------------------------|
|--------------------------------------------------------------------|

|--14--12--14-14(16)--12------12--------------------------------------|
|-----------------------14-14---14\------14-16--14--14-16(17)16-14-14-|
|-----------------------------------8/15------15----------------------|
|---------------------------------------------------------------------|
|---------------------------------------------------------------------|
|---------------------------------------------------------------------|

|--16---------------9-----------------------------------9\\----------|
|----14-------9--11---------11----------9----9----------11\----------|
|--------6/10---------------11--8/10----------10--------10\----------|
|---------------------11------------------------11------11\----------|
|-------------------------------------------------11-----------------|
|--------------------------------------------------------------------|
[ Tab from: http://www.guitartabs.cc/tabs/b/bb_king/sweet_little_angel_how_blue_can_you_get_tab.html ]
|----10-------------------13-15-(17)----(15)---------------13-(14)---|
|--10----15-15--------15---------------------15----12--15------------|
|--------------------------------------------------------------------|
|--------------------------------------------------------------------|
|--------------------------------------------------------------------|
|--------------------------------------------------------------------|

|----------15(17)--(15)-13--------13--(14)----15----(16)(15)--13---15-|
|--15--15-------------------15----------------------------------------|
|---------------------------------------------------------------------|
|---------------------------------------------------------------------|
|---------------------------------------------------------------------|
|---------------------------------------------------------------------|

|--15-13-15-13-15-13-15-15(17)15-13-15-15(17)15-13-15(17)------------|
|--------------------------------------------------------------------|
|--------------------------------------------------------------------|
|--------------------------------------------------------------------|
|--------------------------------------------------------------------|
|--------------------------------------------------------------------|

|--15-13-15-15(16)--(15)13----13-------------------------------------|
|-------------------------15----15\----------15-17----15-------------|
|--------------------------------------12/16-------16----------------|
|--------------------------------------------------------------------|
|--------------------------------------------------------------------|
|--------------------------------------------------------------------|

|--------------------------------------------------------------------|
|----17-(18)----(17)--------15--17----17----------15-17(19)-(17)15---|
|--16---------------------16-------16-----16----16-------------------|
|--------------------------------------------------------------------|
|--------------------------------------------------------------------|
|--------------------------------------------------------------------|

|-----------------------------------17(20)--17-15--------------------|
|--17----15-17-17(19)-15-17--15------------------18-15-18-15--15-17--|
|----16--------------------16---16--------------------------16-------|
|--------------------------------------------------------------------|
|--------------------------------------------------------------------|
|--------------------------------------------------------------------|

|------------------------17------------------------10----------------|
|--(18)-(17)--15-----------15------------------10------12------------|
|--------------------------------------7/11--------------------------|
|--------------------------------------------------------------------|
|--------------------------------------------------------------------|
|--------------------------------------------------------------------|

|--------10----------------------------------------------------------|
|------x-----12-10---------------------------------------------------|
|----x-------------10----10--11--------------------------------------|
|--x-----------------------------------------------------------------|
|----------------------------------12------12------12----------------|
|--------------------------------------------------------------------|

End! If you have any comments or crit about this tab then please contact me on 
or pm me.
Thanks...
Comments