Bb King - Guess Who Chords & Tabs

 

Bb King Chords & Tabs

Version: 1 Type: Tab 0 ratings
1 star 2 stars 3 stars 4 stars 5 stars
comments

Guess Who Tab

Band Name : BB King
Song Name : Guess Who
Tabbed By : Terry Sims (Masterofdarknes)
Email     : Floyd_Fan89@teenspot.com


  Acoustic guitar


-------0----3-----8---------0----|-------0----3-----8----------0----|
--1--------------------8---------|-----------------------8----------|
---------------------------------|--5-------------------------------|
---------------------------------|----------------------------------|
---------------------------------|----------------------------------|
---------------------------------|----------------------------------|

--------0----4----8----4-----0----|--------0----4-----8----4----0----|
----------------------------------|---1------------------------------|
---5------------------------------|----------------------------------|
----------------------------------|----------------------------------|
----------------------------------|----------------------------------|
----------------------------------|----------------------------------|

-------1----5----10-----------------|-------------5----8----5---------|
--3--------------------10-----------|--------6-------------------6----|
------------------------------10----|--7------------------------------|
------------------------------------|---------------------------------|
------------------------------------|---------------------------------|
------------------------------------|---------------------------------|

-----------------3--------------|------------------3---------------|
------------3---------3----0----|--------0----3---------3-----0----|
-------4------------------------|---0------------------------------|
--5-----------------------------|----------------------------------|
--------------------------------|----------------------------------|
--------------------------------|----------------------------------|

--------1----5----10-----------------|----------------------9---------------|
---3--------------8-----10-----------|---------------10----------10---------|
-------------------------------10----|---------10----------------------10---|
-------------------------------------|---11---------------------------------|
-------------------------------------|--------------------------------------|
-------------------------------------|--------------------------------------|

---------------------8----------------|-------------------7---------------|
---------------10--------10-----------|--------------8--------8-----4-----|
--------10----------------------10----|--------7--------------------7-----|
--10----------------------------------|---9-------------------------------|
--------------------------------------|-----------------------------------|
--------------------------------------|-----------------------------------|

--------------3-----8---------0----|-------0-----3----8----------0----|
--------4-5--------------8---------|-----------------------8----------|
---5-------------------------------|--5-------------------------------|
-----------------------------------|----------------------------------|
-----------------------------------|----------------------------------|
-----------------------------------|----------------------------------|

-------0-----3----0--6---3-----0-----|---------0----3----6----3----0-----|
-------------------------------------|----1------------------------------|
--5----------------------------------|-----------------------------------|
-------------------------------------|-----------------------------------|
-------------------------------------|-----------------------------------|
-------------------------------------|-----------------------------------|

---1----5-----8----13-----------------|---------------------13--------------|
-------------------------13-----------|---------------13----------13--------|
-------------------------------14-----|---------14----------------------14--|
--------------------------------------|---15--------------------------------|
--------------------------------------|-------------------------------------|
--------------------------------------|-------------------------------------|

---------------------13-----------------|
---------------13----------13-----------|
---------13----------------------13-----|
---15-----------------------------------|
----------------------------------------|
----------------------------------------|
[ Tab from: http://www.guitartabs.cc/tabs/b/bb_king/guess_who_tab.html ]
--------------8----13--------------------|-------------------8--------------|
---------9---------------13--------------|--------------8---------8---------|
---10---------------------------13--13---|---------9-------------------9----|
-----------------------------------------|---10-----------------------------|
-----------------------------------------|----------------------------------|
-----------------------------------------|----------------------------------|

--------------------8----------------|-------------3-----5----3----0-----|
--------------8----------8-----------|--------5--------------------------|
---------9---------------------9-----|---6-------------------------------|
---10--------------------------------|-----------------------------------|
-------------------------------------|-----------------------------------|
-------------------------------------|-----------------------------------|

--------0-------5----3-----0-----|--------1----5-----8---5-----------|
---2-----------------2-----------|---3-------------------------6-----|
---------------------------------|-----------------------------------|
---------------------------------|-----------------------------------|
---------------------------------|-----------------------------------|
---------------------------------|-----------------------------------|

-------------5----10-----------------|--------------------5---------------|
--------6---------------10-----------|--------------------8---------0-----|
---7--------------------------10-----|--------------7-----------7---------|
-------------------------------------|---------9--------------------------|
-------------------------------------|---10-------------------------------|
-------------------------------------|------------------------------------|

------------------3----------------|--------0----3----8---------0-----|
--------0----3---------3-----0-----|---1-------------------8----------|
---0-------------------------------|----------------------------------|
-----------------------------------|----------------------------------|
-----------------------------------|----------------------------------|
-----------------------------------|----------------------------------|

--------0----3-----8---------0-----|--------------0-----3----0----------|
-----------------------8-----------|------------------------------2-----|
---5-------------------------------|---------6--------------------------|
-----------------------------------|----7-------------------------------|
-----------------------------------|------------------------------------|
-----------------------------------|------------------------------------|

-------------0-----3----0----------|--------1----5----10-----------------|
--------2---------------------2----|---3--------------------10-----------|
---2-------------------------------|------------------------------10-----|
-----------------------------------|-------------------------------------|
-----------------------------------|-------------------------------------|
-----------------------------------|-------------------------------------|

-------------5----8----5-------------|-------3----------------------|
--------6-------------------7-6------|-----3------------------------|
---7---------------------------------|---4--------------------------|
-----------------------------------5-|------------------------------|
-------------------------------------|------------------------------|
-------------------------------------|------------------------------|

----------------------------|--------0----3----8----------0-----|
----------------------------|---1-------------------8-----------|
----------------------------|-----------------------------------|
----------------------------|-----------------------------------|
----------------------------|-----------------------------------|
----------------------------|-----------------------------------|

--------0----3----8---------0-----|---0-3-8-----------------------|
-----------------------8----------|-------------------------------|
---5----------------------------5-|-------------------------------|
----------------------------------|-------------------------------|
----------------------------------|-------------------------------|
----------------------------------|-------------------------------|

--------------------------||
--------------------------||
--------------------------||
--------------------------||
--------------------------||
--------------------------||
Comments