Bb King - Everyday I Have The Blues Chords & Tabs

 

Everyday I Have The Blues Chords & Tabs

Bb King Chords & Tabs

Version: 2 Type: Tab 0 ratings
1 star 2 stars 3 stars 4 stars 5 stars
comments

Everyday I Have The Blues Tab

   
EVERY DAY I HAVE THE BLUES
As recorded by B.B. King

(From the 2004 Album Blues Anthology)

Words & Music by Lowell Fulson

Gtr I (E A D G B E) - 'B.B. King clean electric'

Q=200(8=s8)
 4/4
  Gtr I
                   ~~~~
  H    Q.    E    +W            +Q   Q   E  Q   E        +W
|------------9-|--(9)--------|--(9)-------------------|---------|
|-----------10-|-(10)--------|-(10)--------10--12b14==|=(14)----|
|-----------11-|-(11)--------|-(11)-----11------------|---------|
|--------------|-------------|------------------------|---------|
|--------------|-------------|------------------------|---------|
|--------------|-------------|------------------------|---------|


        ~~                                            ~~
  Q.    E  +Q.    A     +E    E  E E  E  A     +E  E  Q
|---------------------------|---10---12------------------|
|------10-(10)---12b13-(13)-|-----------12b13-(13)---10--|
|---------------------------|----------------------------|
|---------------------------|----------------------------|
|---------------------------|----------------------------|
|---------------------------|----------------------------|


   +Q    E     +E  Q   E  E    +Q.    E H
|---------------------------|----------------|
|-(10)--12b14-(14)-------10-|-(10)-----------|
|---------------------11----|--------11------|
|---------------------------|----------------|
|---------------------------|----------------|
|---------------------------|----------------|


                                        ~~
                |--3---|
  Q.    E      +E   E  E  q    Q.    E  H
|----------------------------|---------------|
|------12b14==(14)r12p10-----|---------10----|
|------------------------11--|------11-------|
|----------------------------|---------------|
|----------------------------|---------------|
|----------------------------|---------------|


                      ~~
   E  Q.      +E  Q   E    +Q   Q  H
|-12--------------------|---------------|
|----12b14---(14)----10-|-(10)----------|
|-----------------------|---------------|
|-----------------------|---------------|
|-----------------------|---------------|
|-----------------------|---------------|


  Wx23          H.      A  Q     H.      Q
|-------------|---------------|-------------|
|-------------|---------------|-10----------|
|-------------|---------9S11--|-------------|
|-------------|---------------|-------------|
|-------------|---------------|-------------|
|-------------|---------------|-------------|


        ~~
  Q.    E  +Q.    E        +Q       +E  E H
|-----------------------|----------------------|
|------10-(10)---12b13==|=(13)b14--(14)--------|
|-----------------------|----------------------|
|-----------------------|----------------------|
|-----------------------|----------------------|
|-----------------------|----------------------|


                                             ~~~
  Q.    A      +E   +H        +Q    E  E  E  Q.
|------13b15==(15)-(15)----|-(15)--12-10----------|
|--------------------------|-------------13-10----|
|--------------------------|----------------------|
|--------------------------|----------------------|
|--------------------------|----------------------|
|--------------------------|----------------------|


                            ~~
                |--3--|
   +Q.    E     E  E  E  E  E    +E   E  E  E  E  A     +E  Q
|-----------------------------|---------------12---------------|
|-(10)---12b14r12-10----10-10-|-(10)----10-10----12b14-(14)----|
|--------------------11-------|------11------------------------|
|-----------------------------|--------------------------------|
|-----------------------------|--------------------------------|
|-----------------------------|--------------------------------|

[ Tab from: http://www.guitartabs.cc/tabs/b/bb_king/everyday_i_have_the_blues_tab_ver_2.html ]
             ~~
  H    Q.    E    +E   A      +Q.    +Q.    E
|--------------|-----------------------------------|
|-----------10-|-(10)-13b15==(15)---(15)---13b13.5-|
|--------------|-----------------------------------|
|--------------|-----------------------------------|
|--------------|-----------------------------------|
|--------------|-----------------------------------|


  E  E      E  E  +Q.    E    E  E Q  H
|--------------------------|---------------|
|---13b13.5---10-(10)------|-10-12---------|
|-----------------------11-|---------------|
|--------------------------|---------------|
|--------------------------|---------------|
|--------------------------|---------------|


  Q   A      +Q    +E   A     +Q.      A     +Q   Q  H
|----13b15==(15)--(15)-13b15-(15)---|-13b15-(15)----------|
|-----------------------------------|---------------------|
|-----------------------------------|---------------------|
|-----------------------------------|---------------------|
|-----------------------------------|---------------------|
|-----------------------------------|---------------------|


                                               ~~~
  Q   A      +Q    +Q   E  E   E  E      E  E  Q.    E
|----13b15==(15)--(15)----12-|-------------------------|
|----------------------------|---13b13.5---10-10----13-|
|----------------------------|-------------------------|
|----------------------------|-------------------------|
|----------------------------|-------------------------|
|----------------------------|-------------------------|


  E  E E  E      +Q    Q     E  E  E  E  Q.    A      +E
|-------------------------|-10------------------------------|
|---10---10b11==(11)r=10--|----13p10----10----12b13==(13)r==|
|-------------------------|----------11---------------------|
|-------------------------|---------------------------------|
|-------------------------|---------------------------------|
|-------------------------|---------------------------------|


   +E   E  E  E  Q   E   E     E  E      +Q    +E  E  E  E
|---------------------------|-12---------------------------|
|-(12)----------10--12-(10)-|----12b14==(14)--(14)------10-|
|------11h12-11-------------|------------------------11----|
|---------------------------|------------------------------|
|---------------------------|------------------------------|
|---------------------------|------------------------------|


   ~~~
   Q.    E E  A      +Q.      +Q   E  A     +E  E  E      E  E
|------------13b15==(15)---|-(15)-------------------------------|
|-10-----------------------|---------13b15-(15)---13b13.5---10--|
|-------11-----------------|------------------------------------|
|--------------------------|------------------------------------|
|--------------------------|------------------------------------|
|--------------------------|------------------------------------|


                              ~~~
   +Q.    E  +E   E  Q     E  Q.    +Q    E  E       +q   H.        Wx22
|-----------------------|-12----------------------|---------------|-------|
|-(10)--------------12--|----10----(10)--12-12b14-|-(14)----------|-------|
|--------11-(11)-12-----|-------------------------|---------------|-------|
|-----------------------|-------------------------|---------------|-------|
|-----------------------|-------------------------|---------------|-------|
|-----------------------|-------------------------|---------------|-------|


   Q   H.        H.       Q     +W            +Q    H.
|-17\----------|----------9--|--(9)--------|--(9)\--------*|
|--------------|---------10--|-(10)--------|-(10)\--------*|
|--------------|---------11--|-(11)--------|-(11)\--------*|
|--------------|-------------|-------------|--------------*|
|--------------|-------------|-------------|--------------*|
|--------------|-------------|-------------|--------------*|
Comments