Bayside - Masterpiece Chords & Tabs

 

Masterpiece Chords & Tabs

Bayside Chords & Tabs

Version: 3 Type: Tab

Masterpiece Tab

   
  Intro                    \"My Friend you’re always...\"
e|-------------------------------------------------------------------------|
b|-------------------------------------------------------------------------|
g|-------------------------------------------------------------------------|
d|-0    ----6    ------x4---0     ----6-6         ------10101010--8888--666|
a|-0 X16----6 x16-----------0 x16 ----6-6 mute x15------10101010--8888--666|
d|-0    ----6    -----------0     ----6-6         ------10101010--8888--666|
                            .           .                . .      ..    
     0:27  
  Intro Cont’d 
e|----------------------------------|
b|----------------------------------|
g|----------------------------------|
d|---5------------0    ---6    -----|
a|-----8--6--5----0 x16---6 x16-----|
d|----------------0    ---6    -----|
                                    
        0:34
  Pre-chorus
e|--------------------------------------------|      e|-------------------|
b|--------------------------------------------|      b|-------------------|
g|--------------------------------------------| x2   g|-------------------| x1
d|6-6-6666--8-8-8888----77-88-77-1010-88-77-5~|      d|6-6-6666--8-8-8888-|
a|6-6-6666--8-8-8888--66----------------------|      a|6-6-6666--8-8-8888-|
d|6-6-6666--8-8-8888--------------------------|      d|6-6-6666--8-8-8888-|
  . .       . .                                        . .       . .
[ Tab from: http://www.guitartabs.cc/tabs/b/bayside/masterpiece_tab_ver_3.html ]
	0:46 – 1:05
  Chorus “You’re not 18 anymore 5 years...\'
e|-----------------------------------------------------|
b|-----------------------------------------------------|
g|---------------------------------------88888---------|
d|--000000-2-333333-888888-3-3-5-5-66666-88888-5     --| x2
a|--000000-2-333333-888888-3-3-5-5-66666-66666-5 x 16--|
d|7/000000-2-333333-888888-3-3-5-5-66666-------5     --|

	1:05 – 2:00
Intro, pre-chorus, and chorus again

	2:00
  Bridge “When is enough, finally enough...”
e----------------------------------------|
b----------------------------------------|
g----------------------------------------|
d-88888888------5555-5555------8888------| x2
a-66666666-5555-2222-3333-6666-6666-5555-|
d----------5555-----------6666------5555-|

	2:19
 Part after “When is enough...”
e--------------------|
b--------------------|
g--------------------|
d-88888888-4444444/6-| x4 (Palm mute 2x then open 2x)
a-66666666-2222222/4-|
e--------------------|
   .......  .....
	2:38
  Painting pictures in red and blue….
e|--------------------------------------------|      e|-------------------|
b|--------------------------------------------|      b|-------------------|
g|--------------------------------------------| x2   g|-------------------| x1
d|6-6-6666--8-8-8888----77-88-77-1010-88-77-5~|      d|6-6-6666--8-8-8888-|
a|6-6-6666--8-8-8888--66----------------------|      a|6-6-6666--8-8-8888-|
d|6-6-6666--8-8-8888--------------------------|      d|6-6-6666--8-8-8888-|
  . .       . .                                        . .       . .

	2:50 – 3:44
  chorus \"You’re not 18 anymore 5 years...\'
e|-----------------------------------------------------|
b|-----------------------------------------------------|
g|---------------------------------------88888---------|
d|--000000-2-333333-888888-3-3-5-5-66666-88888-5     --| x4
a|--000000-2-333333-888888-3-3-5-5-66666-66666-5 x 16--|
d|7/000000-2-333333-888888-3-3-5-5-66666-------5     --|