Bayside - Masterpiece Chords & Tabs

 

Masterpiece Chords & Tabs

Bayside Chords & Tabs

Version: 2 Type: Tab 0 ratings
1 star 2 stars 3 stars 4 stars 5 stars
comments

Masterpiece Tab

   
----------------------------------------------------------------------------
                       Bayside - Masterpiece
----------------------------------------------------------------------------
by: nothing2noone
email: jason_ridings@yahoo.com

.-palm mute
~-hold note
b-bend note
x-mute note
/-slide
regular tuning - eadgbe

Intro
e---------------------------------------------------------------------------|
b---------------------------------------------------------------------------|
g-55555555------------------------------------------------------------------|
d-55555555--66666666---(x4)-------------------------------------------------|
a-33333333--66666666--------------------------------------------------------|
E-----------44444444--------------------------------------------------------|

Verse
my friend, you're allways.....
e---------------------------------------------------------------------------|
b---------------------------------------------------------------------------|
g-55555555------------------------------------------------------------------|
d-55555555--66666666--10-10-xxx--88-xxx--66-xxx--5--------------------------|
a-33333333--66666666--10-10-xxx--88-xxx--66-xxx-----8---6--5----------------|
E-----------44444444---8--8-xxx--66-xxx--44-xxx-----------------------------|

last glass makes it way.....
e---------------------------------------------------------------------------|
b---------------------------------------------------------------------------|
g-55555555-------------------------77-88-77-1010-88-77-5b-------------------|
d-55555555--66666666--666--888-----------------------------666--888---------|
a-33333333--66666666--666--888--66-------------------------666--888---------|
E-----------44444444--444--555-----------------------------444--666---------|
    ..        ......

e---------------------------------------------------------------------------|
b---------------------------------------------------------------------------|
g-----77-88-77-1010-88-77-5b------------------------------------------------|
d------------------------------666--888-------------------------------------|
a--66--------------------------666--888-------------------------------------|
E------------------------------444--666-------------------------------------|
[ Tab from: http://www.guitartabs.cc/tabs/b/bayside/masterpiece_tab_ver_2.html ]
Chorus
you're not 18 anymore.....
e---------------------------------------------------------------------------|
b---------------------------------------------------------------------------|
g--5555--8888------------------------8888-----------------------------------|
d--5555--8888--8888--333--555--6666--8888--55555555---(x2)------------------|
a--3333--6666--8888--333--555--6666--6666--55555555-------------------------|
E--------------6666--111--333--4444--------33333333-------------------------|

Intro x2
Verse
Chorus

Bridge
When is enough finally enough.....
e---------------------------------------------------------------------------|
b---------------------------------------------------------------------------|
g--88888888-------555--555-------888----------------------------------------|
d--88888888--555--555--555--666--888--8888---(x2)---------------------------|
a--66666666--555--222--333--666--666--8888----------------------------------|
E------------333------------444-------6666----------------------------------|

e---------------------------------------------------------------------------|
b---------------------------------------------------------------------------|
g-8888888/6--4444444/6--8888888/6--4444444/6--------------------------------|
d-8888888/6--4444444/6--8888888/6--4444444/6---(x2)-------------------------|
a-6666666/4--2222222/4--6666666/4--2222222/4--------------------------------|
E---------------------------------------------------------------------------|

Painting pictures in red and blue...
e---------------------------------------------------------------------------|
b---------------------------------------------------------------------------|
g--------------77-88-77-1010-88-77-5b---------------------------------------|
d-666--888-----------------------------(x2)----666--888---------------------|
a-666--888--66---------------------------------666--888---------------------|
E-444--666-------------------------------------444--666---------------------|

Chorus

Outro
When is enough finally enough
e---------------------------------------------------------------------------|
b---------------------------------------------------------------------------|
g--55-xx--88-xx--------------------------88-xx------------------------------|
d--55-xx--88-xx--88-xx--33---55---66-xx--88-xx--55555555--------------------|
a--33-xx--66-xx--88-xx--33---55---66-xx--66-xx--55555555--------------------|
E----------------66-xx--11---33---44-xx---------33333333--------------------|

When is enough finally enough
e---------------------------------------------------------------------------|
b---------------------------------------------------------------------------|
g--55-xx--88-xx--------------------------88-xx------------------------------|
d--55-xx--88-xx--88-xx--33---55---66-xx--88-xx--5~--------------------------|
a--33-xx--66-xx--88-xx--33---55---66-xx--66-xx--5~--------------------------|
E----------------66-xx--11---33---44-xx---------3~--------------------------|
Comments