Bayside - Hello Shitty Chords & Tabs

 

Hello Shitty Chords & Tabs

Bayside Chords & Tabs

Version: 1 Type: Tab

Hello Shitty Tab

----------------------------------------------------------------------------
			  HELLO SHITTY - Bayside
----------------------------------------------------------------------------
Tabbed by: Patrice Naud
Email: drnaud81@hotmail.com

Tuning: 1 whole step down ( DGCFAD )
[ Tab from: http://www.guitartabs.cc/tabs/b/bayside/hello_shitty_tab.html ]
verse:
D|-----|------------------------------------------------------------------|
A|-----|------------------------------------------------------------------|
F|--4--|-----5--6-----7--6-----4----6--2--4-------------------------------|
C|--4--|--2--5--6--7--7--6--4--4----6--2--4-------------------------------|
G|--2--|--2--3--4--7--5--4--4--2----4--0--2-------------------------------|
D|-----|--0--------5--------2---------------------------------------------|

chorus:
D|---------------|--------------------------------------------------------|
A|---------------|--------------------------------------------------------|
F|--6--2-----4---|-------5------------------------------------------------|
C|--6--2--2--4---|--2----5------------------------------------------------|
G|--4--0--2--2---|--2----3------------------------------------------------|
D|--------0------|--0-----------------------------------------------------|

Listen to the song to know when to play each sections, listen to the rythm and you're set !

============================================================================