Bayside - Dont Call Me Peanut Chords & Tabs

 

Dont Call Me Peanut Chords & Tabs

Bayside Chords & Tabs

Version: 2 Type: Tab

Dont Call Me Peanut Tab

-------------------------------------------------------------------------------
	              DON'T CALL ME PEANUT - Bayside
-------------------------------------------------------------------------------
Tabbed by: Joseph el Negro
Email: dssiblfyhtfetrf@hotmail.com

Tuning: 1 step down

I was fed up with searching for this song, so I made it myself.  I can't figure out 
what to do with all the little embellishments and what not, so basically just play around 
them as you see fit.  I will say, this song sounds better strummed with your finger than with a pick.

d|-----0--------0--------0--|
[ Tab from: http://www.guitartabs.cc/tabs/b/bayside/dont_call_me_peanut_tab_ver_2.html ]
A|-----0--------1--------3--|
F|-----0------2--------4----|
C|---2------3--------5------|  4X
G|-3------------------------|
D|--------------------------|
(2X in) Drink up beautiful...
d|-----0----0-0--0-----------------------0-0-0-0-3-0-0-|
A|-----0----1-1--4-----------------------1-1-1-0-3-0-1-|
F|-----0----2-2--5------2---1---2--------2-2-2---0---0-|
C|---2------3-3--6----------------2------3-3-3---0---2-|
G|-3------------------0---0---0------------------2---3-|
D|----------------------------------3------------3-----|
       'Cause I've got so much trapped...

(I only know the basic chords for the chorus)
d|-0----3----1----3-|
A|-1----3----1----3-|
F|-2----0----2----4-|
C|-2----0----3----5-|  2X
G|-0----2-----------|
D|------3-----------|
   And when I see her...

Then back to the intro & the verse.
And back to the chorus.
As for the solo, I have no clue.  Figure it out yourself.