Bayside - Devotion And Desire Chords & Tabs

 

Devotion And Desire Chords & Tabs

Bayside Chords & Tabs

Version: 4 Type: Tab

Devotion And Desire Tab

   
Bayside-Devotion and Desire Solo
	
Drop D-DADGBe

I recorded this and slowed it down to hear every note played so its pretty
close to being right…sounds really good

E|--------------------------------------------------------------------------|
B|--------------------------------------------------------------------------|
G|--12b-10-9-10----9--------------------------------------------------------|
D|--------------12---10-12-14-15-12-14-10-12-10-----------------------------|
A|----------------------------------------------8-10b11b10-8~---------------|
E|--------------------------------------------------------------------------|

[ Tab from: http://www.guitartabs.cc/tabs/b/bayside/devotion_and_desire_tab_ver_4.html ]
E|--------------------------------------------------------------------------|
B|------------------------------------------10------------------------------|
G|---------------------------------------------9----------------------------|
D|---------------3---3-5b6b5-3---3---/7-8-7------11-------------------------|
A|----0-3-0-3~-5---5-----------5---5----------------------------------------|
E|--5-----------------------------------------------------------------------|

 
E|--10p0-8p0-6p0-5p0-3p0-6p0-5p0-3p0-8p0-6p0-10p0-8p0-12p0-10p0-12b---------|
B|--------------------------------------------------------------------------|
G|--------------------------------------------------------------------------|
D|--------------------------------------------------------------------------|
A|--------------------------------------------------------------------------|
E|--------------------------------------------------------------------------|


D|------------------9-------------------------------------------------------|
B|-------------9h10---10h9---------------10-----10-11-10--------------------|
G|--12b-10-----------------11---------------9----9--9--9--------------------|
D|---------9-9----------------11-5-7-8-7------7--7--7--7--------------------|
A|--------------------------------------------------------------------------|
E|--------------------------------------------------------------------------|