Bayside - Blame It On Bad Luck Chords & Tabs

 

Blame It On Bad Luck Chords & Tabs

Bayside Chords & Tabs

Version: 1 Type: Bass Tab

Blame It On Bad Luck Bass Tab

   
   I don't know the whole song, and I'm not sure if it's right, but I learned some of it.
      (INTRO)
          G-----------------------------------|
          D-----------------------------------|
          A-----------------------------------|
          D--9--7-5--4-2--3-4--7---x2---------|
      (BREAK)
          G-----------------------------------|
          D-----------------------------------|
          A-----------------------------------|
          D-9-9-9-9-9-9-9-9-------------------|
      (RIFF 1)
          G-----------------------------------|
          D-----------------------------------|
          A-----------------------------------|
          D-9-9-9-4-9-7-5-4-2-2-2-2-4-4-4-4---|
      (RIFF 2)
          G-----------------------------------|
          D-----------------------------------|
          A-----------------------------------|
          D-9-4-9-10-12-10-9-7-2222-4444------|
            Repeat riff 1&2 twice
      (CHORUS)
          G-----------------------------------|
          D-----------------------------------|
          A-----------------------------------|
          D-9--7-5--4-2--3-4--7---X2----------|
            You have to repeatedly hit the note though.
      (BREAK 2)
          G-----------------------------------|
          D-----------------------------------|
          A-----------------------------------|
          D-9-999-4-9-999-4-2-2222-4-4444-----|
      (RIFF 1)
          G-----------------------------------|
          D-----------------------------------|
          A-----------------------------------|
          D-9-9-9-4-9-7-5-4-2-2-2-2-4-4-4-4---|
      (RIFF 2)
          G-----------------------------------|
          D-----------------------------------|
          A-----------------------------------|
          D-9-4-9-10-12-10-9-7-2222-4444------|
            Repeat riff 1&2 twice
      (CHORUS)
          G-----------------------------------|
          D-----------------------------------|
          A-----------------------------------|
          D-9--7-5--4-2--3-4--7---X2--5--77---|
            You have to repeatedly hit the note though.Except the 5 at the end.
      (BREAK 3)
          G------------------------------------|
          D------------------------------------|
          A------------------------------------|
          D-4-4-4-4-4-4-7-7-9-9-9-9-9-9-9-9----|X2
      (RIFF 3)
          G-----------------------------------|
          D-----------------------------------|
          A-----------------------------------|
          D-5-5-55-0-0-00-4-4-44-99-77-5-5-55-|

          G------------------------------------|
          D------------------------------------|
          A------------------------------------|
          D-0-0-00-4-4-44-15-15-15-15-15-15-15-|
           Do the 15's fast.
          G-----------------------------------|
          D-----------------------------------|
          A-----------------------------------|
          D-5-5-55-0-0-00-4-4-44-99-77-5-5-55-|

          G-----------------------------------|
          D-----------------------------------|
          A-----------------------------------|
          D-0-0-00-4-4-44444444444------------|

          G-----------------------------------|
          D-----------------------------------|
          A-----------------------------------|
          D-4--7--8--9--4--77-8---------------|
     (CHORUS)
          G-----------------------------------|
          D-----------------------------------|
          A-----------------------------------|
          D-9--7-5--4-2--3-4--7---X2----------|
            You have to repeatedly hit the note though.
     (END)
          G-----------------------------------|
          D-----------------------------------|
          A-----------------------------------|
          D-4-5---77-88-9/0-------------------|
[ Tab from: http://www.guitartabs.cc/tabs/b/bayside/blame_it_on_bad_luck_btab.html ]