Bauhaus - Boys Chords & Tabs

 

Boys Chords & Tabs

Bauhaus Chords & Tabs

Version: 1 Type: Bass Tab 0 ratings
1 star 2 stars 3 stars 4 stars 5 stars
comments

Boys Bass Tab

BAUHAUS - BOYS
ALBUM: BELA LUGOSI'S DEAD (1979)
BASSIST: DAVID J

VERSE

E --4-4---4-4------------------|
A -----------------------------|
D -----------------------------|
G -----------------------------|

BRIDGE
[ Tab from: http://www.guitartabs.cc/tabs/b/bauhaus/boys_btab.html ]
E -----5----5----5----5--------|
A ---5----5----5----5---5/12/5-|
D -----------------------------|
G -----------------------------|


VARIATIONS OF BRIDGE

E -----5----5----5----5--------|
A ---5----5----5----5----------|
D -----------------------------|
G -------------------------20*-|


E -----5----5----5----5------------|
A ---5----5----5----5----5/9/5/12--|
D ---------------------------------|
G ---------------------------------|


tabbed by JAH WOBBLE IS GOD
Comments