Bathory - Ring Of Gold Chords & Tabs

 

Ring Of Gold Chords & Tabs

Bathory Chords & Tabs

Version: 1 Type: Tab

Ring Of Gold Tab

e|---------------------------------------------------------------------------|
B|1--------1-------------1--------------1------------------------------------|
G|----1------------1-------------1--------------1--------3-----0----3----0---|
D|--3---3-------3-----3-------3-----3--------3-----3--------1----1-----1-----|
A|3--------3-------------3--------------3----------------3----------3--------|
E|---------------------------------------------------------------------------|


e|---------------------------------------------------------------------------|
B|---------------------------------------------------------------------------|
G|-3------0-----3------0---3------0-----3----3------0------------------------|
D|----1------1------1----------1-----1-----------1---------------------------|
A|-3------------3----------4------------4----4-------------------------------|
E|---------------------------------------------------------------------------|

[ Tab from: http://www.guitartabs.cc/tabs/b/bathory/ring_of_gold_tab.html ]
e|---------------------------------------------------------------------------|
B|---------------------------------------------------------------------------|
G|-1---0-----------1---0------------3---0--1-----3--0-1----3---0-1-3-0^1^0---|
D|-------3-5--------------3-5-----------------3---------3------------------3-|
A|-3-----------3---3-----------3----3------------3---------3-----------------|
E|---------------------------------------------------------------------------|


e|---------------------------------------------------------------------------|
B|---------------------------------------------------------------------------|
G|---------------------------------------------------------------------------|
D|-3-------------------------------------------------------------------------|
A|-3-------------------------------------------------------------------------|
E|---------------------------------------------------------------------------|