Baryn Rojo - Campo De Concentration Chords & Tabs

 

Campo De Concentration Chords & Tabs

Baryn Rojo Chords & Tabs

Version: 1 Type: Tab 0 ratings
1 star 2 stars 3 stars 4 stars 5 stars
comments

Campo De Concentration Tab

|=========================================| 
|  BARÓN ROJO                             | 
|  CAMPO DE CONCENTRACIÓN                 | 
|                                         | 
|=========================================| 
  
  
  
  
  
-------------------------------------------- 
-------------------------------------------- 
-------------------------------------------- 
------7---------5-----------3----------5---- 
---7---------5----------3-----------5----5-- 
-5--------3--------1------------3----------- x2 
  
  
  
---------------------------------------------------------------------------------------- 
---------------------------------------------------------------------------------------- 
---------------------------------------------------------------------------------------- 
---7-7-----9-----10----5---3--------3-2--------7-7-----9-----10----5---3----5--5-------- 
---7-7-----9-----10----5---3----3-2------3-----7-7-----9-----10----5---3----5--5-------- 
---5-5-----7-----8-----3---1-------------------5-5-----7-----8-----3---1----3--3-------- x2 
  

---------------------------------------------------------------------------------------- 
---------------------------------------------------------------------------------------- 
---------------------------------------------------------7------------------------------ 
--7--------5--------3-----------5---------7----5----7----7------------------------------ 
--7--------5--------3-----------5---------7----5----7----5------------------------------ 
--5--------3--------1-----------3---------5----3----5----------------------------------- x2 
  
---------------------------------------------------------------------------------- 
---------------------------------------------------------------------------------- 
---------------------------------------------------------------------------------- 
------7---------5-----------3----------5------7--------5--------3-----------5----- 
---7----7-----5---5-------3---3-----5----5----7--------5--------3-----------5----- 
-5---------3------------1---------3-----------5--------3--------1-----------3----- x4 
  
Prechorus 
[ Tab from: http://www.guitartabs.cc/tabs/b/baryn_rojo/campo_de_concentration_tab.html ]
Comments