Bark Psychosis - From What Is Said To When Its Read Chords & Tabs

 

From What Is Said To When Its Read Chords & Tabs

Bark Psychosis Chords & Tabs

Version: 1 Type: Tab

From What Is Said To When Its Read Tab

   
---------------------------------------------------------------------
         FROM WHAT IS SAID TO WHEN ITS READ : Bark Psychosis
---------------------------------------------------------------------
Tabbed by: lifer
Email:

Tuning: standard

Capo on 1st fret

Part A
e|-------------------------------------------------------------------|
B|---0-----0-----0-----0---------------------------------------------|
G|---4-----6-----8---------------------------------------------------|
D|---4-----6-----6-----6---------------------------------------------|
A|---2-----4-----6-----4---------------------------------------------|
E|---0-----0-----0-----4---------------------------------------------|


Part B
e|--------5-------5-------5------------|
B|----3---3---3---3---3---3---3---3----|
G|------3-------3-------3-------3------|
D|-------------------------------------|
A|--5-------5-------5-------5----------|
E|-------------------------------------| (X2)
[ Tab from: http://www.guitartabs.cc/tabs/b/bark_psychosis/from_what_is_said_to_when_its_read_tab.html ]
e|--------7-------7-------7-----------|
B|----5---5---5---5---5---5---5---5---|
G|------5-------5-------5-------5-----|
D|------------------------------------|
A|--7-------7-------7-------7---------|
E|------------------------------------|

e|--------7-------7-------5-----------|
B|----5---5---5---5---5---5---5---5---|
G|------5-------5-------5-------5-----|
D|------------------------------------|
A|--7-------7-------7-------7---------|
E|------------------------------------|


Part C
e|---0-----0-----0-----0---------------------------------------------|
B|---0-----0-----0-----0---------------------------------------------|
G|---9-----9----11----11---------------------------------------------|
D|---0-----0-----0-----0---------------------------------------------|
A|---7-----7-----9-----9---------------------------------------------|
E|---8----10----10----10---------------------------------------------|

note: Parts A and C are relative to capo (move everything up 1 fret),
part B is not.