Baris Manco - Lahburger Chords & Tabs

 

Lahburger Chords & Tabs

Baris Manco Chords & Tabs

Version: 1 Type: Bass Tab 0 ratings
1 star 2 stars 3 stars 4 stars 5 stars
comments

Lahburger Bass Tab

Lahburger - Bar?? Man?o

Bas :
G|-----------------------4-|
D|-------------------------|
A|---------2-5-2---0-1-2---|
E|-0-2-4-5-------4---------|
 \_________10 DEFA________/

G|----------------------------------------------|
D|----7-6-6-6-7---4-2-2~4-2---7-6-6-6-7---9-7-9-|
A|--5-----------5-----------5-----------5-------|
E|----------------------------------------------|
 \________________2 DEFA_______________________/
[ Tab from: http://www.guitartabs.cc/tabs/b/baris_manco/lahburger_btab.html ]
G|-----------------------4-|
D|-------------------------|
A|---------2-5-2---0-1-2---|
E|-0-2-4-5-------4---------|
 \_________14 DEFA________/

G|----------------------------------------------|
D|----7-6-6-6-7---4-2-2~4-2---7-6-6-6-7---9-7-9-|
A|--5-----------5-----------5-----------5-------|
E|----------------------------------------------|
 \________________2 DEFA_______________________/

                                  by asphyxiater
Comments