Barenaked Ladies - Testing 1 2 Chords & Tabs

 

Testing 1 2 Chords & Tabs

Barenaked Ladies Chords & Tabs

Version: 1 Type: Chords 0 ratings
1 star 2 stars 3 stars 4 stars 5 stars
comments

Testing 1 2 Chords

   
“Testing 1-2-3”
The Barenaked Ladies
By Bob Sutherby (bobzyk@yahoo.com)


NOTES ON THE SONG:
- This is a chord file, but by necessity there is some tab in here
- Capo guitar at 2nd fret
- pitch is E major, but rhythm guitar plays as if in D major
- don’t be put off by the odd effects on the guitar in the opening; listen to the right channel because the left channel contains a pitch-shifting effect on the guitar
- percent sign % means repeat a bar (measure)
- see CHORD LEGEND at bottom of page for all the chord voicings


INTRO (D chord implied)

|-0^2^0------0^2^0--0^2^0-|-0^2^0--------|
|--h-p--3-----h-p----h-p--|--h-p--3------|
|---------2---------------|---------2----| [2X]
|-------------------------|--------------|
|-------------------------|--------------|
|-------------------------|--------------|

| D, A7sus | Em7, G | [3x]


VERSE

| D | % | % | % | (D chord rings over 4 bars while bass plays)

then:
[ Tab from: http://www.guitartabs.cc/tabs/b/barenaked_ladies/testing_1_2_crd.html ]
|-----0--2---|-----2--3----|
|---3--------|---3---------|
|-2----------|-2-----------| [2X]
|------------|-------------|
|------------|-------------|
|------------|-------------|


|-------------|-------------|-3---3-3-----|-3-3-3-3-3----|
|-3--3-3------|-3---3-3-----|-3---3-3-----|-3-3-3-3-3----|
|-2--2-2------|-2---2-2-----|-0---0-0-----|-0-0-0-0-0----|
|-0--0-x------|-4---4-2-----|-0---0-0-----|-2-2-2-2-2----|
|------4------|-2---2-0-----|-x---x-x-----|-2-2-2-2-2----|
|-------------|-------------|-3---3-2-----|-0-0-0-0-0----|


CHORUS:

| D, A7sus | Em7, G | [3x]


REPEAT VERSE AND CHORUS


BRIDGE:

| Bm7, A7sus | D, G | [3X]

| Bm7 | A7sus | D | 


REPEAT CHORUS


2ND BRIDGE:

| D | G | A7sus | Em7 |


REPEAT CHORUS 2X


END:

| D, A7sus | Em7, G | [2x]  | D |



------------------------—


CHORD LEGEND

D      XX0232
A7sus  X02033
Em7    022033
G      320033
Bm7    X24232

Comments