Barenaked Ladies - Serendipity Chords & Tabs

 

Barenaked Ladies Chords & Tabs

Version: 1 Type: Tab 0 ratings
1 star 2 stars 3 stars 4 stars 5 stars
comments

Serendipity Tab

   
Serendipity
Barenaked Ladies
Barenaked Ladies are Men

Standard Tuning

Intro

e|--2--0--3----------|
B|--3--3--3----------|
G|--2--1--0----------|
D|--0ó-0--0----------|        x4
A|-------------------|
E|-------------------|

Repeat through verse up until pre-chorus

Pre-chorus
If I had a reason for me to share with you. Now the coldest season came, making room for 
new.

e|--0----------0---------0----------0------------0----0-----------------|
B|--2----------3---------2----------3------------3----2-----------------|
G|--2----------2---------2----------2------------0----0-----------------|
D|--2----------0---------2----------0------------2----2-----------------|
A|-------------0--------------------0-----------------------------------|
E|-------------2--------------------3-----------------------------------|

chorus

good for you, good for me.  Call it serendipity.
e|--2--0--3----------|
B|--3--3--3----------|
G|--2--1--0----------|
D|--0ó-0--0----------|
A|-------------------|
E|-------------------|
[ Tab from: http://www.guitartabs.cc/tabs/b/barenaked_ladies/serendipity_tab.html ]
Walking on coals just trying to get through, Ďcus summerís donít last that long, the
thing here is the truth.  Everything else is gone.
e|--2--0--3----------|
B|--3--3--3----------|
G|--2--1--0----------|           repeat throughout the verse
D|--0ó-0--0----------|
A|-------------------|
E|-------------------|

Pre-chorus

Chorus

Bridge:
If I could only hit my stride
Iíll make it to the other side
I donít to be roadkill
When thereís Africa to fill
e|----0--------0----------|
B|----0--------2----------|
G|----0--------0----------|      x4
D|----2--------2----------|
A|----2-------------------|
E|------------------------|

Chorus

e|----2-0-3---2-0-3----------2---2-0-3--2-0-3-----|
B|----3-3-3---3-3-3-------3------3-3-3--3-3-3-----|
G|----2-1-0---2-1-0----2---------2-1-0--2-1-0-----|
D|----0-0-0---0-0-0--------------0-0-0--0-0-0-----|
A|------------------------------------------------|
E|------------------------------------------------|

| /  slide up
| \  slide down
| h  hammer-on
| p  pull-off
| ~  vibrato
| +  harmonic
| x  Mute note
===============================================================================
Comments