Barenaked Ladies - Light Up My Room Chords & Tabs

 

Light Up My Room Chords & Tabs

Barenaked Ladies Chords & Tabs

Version: 1 Type: Tab 1 rating
1 star 2 stars 3 stars 4 stars 5 stars
comments

Light Up My Room Tab

I'm knew at this, but I love this song, and there weren't any tabs for it...so this is my interpretation...
Listen to the song for the rhythm.

Intro: X4
E|---------------------------------------3----------|
B|---------3-----------3-----------3-----------3----|
G|-------0---0-------0---0-------0---0-------0---0--|
D|---------------0----------------------------------|
A|---------------------------3----------------------|
E|---3----------------------------------------------|
[ Tab from: http://www.guitartabs.cc/tabs/b/barenaked_ladies/light_up_my_room_tab.html ]
A Hydro-field cuts through my neighbourhood... (verse 1 play intro)
 play intro X3   then this when its sounds sharp or flat or whatever:
E|--------------------------------------3-----------|
B|---------3-----------3-----------3-----------3----|
G|-------0---0-------0---0-------0---0-------0---0--|
D|---------------0----------------------------------|
A|---3----------------------------------------------|
E|---------------------------3----------------------|

Late at night when the wires in the walls...(verse 2 play intro and "outro" same as the first verse)

If you question what I would do, to get over and be with you. lift you up over everything. to light up my room. my room. 

 play intro X3 outro X1, except play the last part X2:

E|-----------3---------|
B|-----3-----------3---|
G|---0---0-------0--0--|
D|---------------------|
A|---------------------|
E|---------------------|

and from there, the verses are intro X3, outro X1 
and the chorus is...well...the same...listen to the song for any other things...
just remember if it sounds flat or sharp or whatever to play outro...otherwise, play the intro...

Have fun ;D. If you have any corrections or comments, 
mail me at daiquiri37@hotmail.com. 
*allllsoooo remember, im new at this...constructive criticism only please :D*
Comments