Barenaked Ladies - Hidden Sun Chords & Tabs

 

Hidden Sun Chords & Tabs

Barenaked Ladies Chords & Tabs

Version: 1 Type: Tab 0 ratings
1 star 2 stars 3 stars 4 stars 5 stars
comments

Hidden Sun Tab

   
-------------------------------------------------------------------------------
			HIDDEN SUN (secret track on Maroon)
				Barenaked Ladies
-------------------------------------------------------------------------------
Tabbed by: Skot
Email: MrCheezLog@aol.com

I don't even like BNL that much but this song is pretty close to 
where it's at.

This is for just one guitar, I tried to get all the cool piano and crap in here.

F#dim = xx1212

Introish thing - do this twice
	Add some more reeelly light little strums in to fill it out.
	   /   +   +   +   /   +   +   +   /   +   +    +   /   +   +   +   
	e|-0---------3---3---------0-7---7---------0--0-----0-------------|
	B|-1---------1---1---------0-8---8---------8--10----1-------------|
	G|-0---------0---0---------0-9---9---------9--9-----0-------------|
	D|-2---------2---2-----------10--10-----------------2-------------|
	A|-3---------3---3----------------------------------3-------------|
	E|----------------------------------------------------------------|
[ Tab from: http://www.guitartabs.cc/tabs/b/barenaked_ladies/hidden_sun_tab.html ]
Verse 1
	C / / / Em / / / Am / / / Em / G / (x2)
	Suddenly, things become unsound
	Stumbling on the shaky ground
	D / / / F#dim / / / G / / / Em / / /
	Given arrows to shoot tornadoes down
		   A
	Shoot 'em down
		   G
	to the ground

Introish thing, 'gain

Verse 2
	Saw a falling leaf Good luck Jump to grab 
	Much to our surprise A butterfly 
	And it's sunkeness in duration 
	In duration 
	In our lives 

Little thing
	    /     +    +   +  /  +  +  +
	e|--2-----2h3--3-------------------|
	B|--3--3-------3-------------------|
	G|--2----------0-------------------|
	D|--0----------0-------------------|
	A|-------------2-------------------|
	E|-------------3-------------------|

Refrain	       	  Em / / / A7 / / /
	Inside ourselves
		 D / / /  G / / /   Em / / / A7 / / /
	A hidden sun that burns and burns
	      D / / /  G / / /    Em / / / A7 / / /
	Never does any harm to anyone

Little thing, 'gain

Intro

Verse 3
	Shivering madly in the dark 
	Like an animal abandoned in the car park 
	Then she held me, and then she showed me the 
	Beauty of 
	The human heart 

Refrain
	Inside ourselves 
	A hidden sun that burns and burns 
	Never does any harm to anyone 
	A hidden sun that burns and burns 
	But never does any harm to anyone 

Little thing a bunch, till the end of the song 
	Anyone 
	Oooh anyone 
	Hidden sun (Sun) 
	Hidden sun 
	Oooh (Sun) 
	(Sun) 
	(Sun) 
	(Sun) 
	(Sun)
(Repeat until tired)

Woo! I hope you dig this song as much as i do.
					Love, Skot
Comments