Bare Egil Band - Gunnar Si At Du Er Homo Chords & Tabs

 

Gunnar Si At Du Er Homo Chords & Tabs

Bare Egil Band Chords & Tabs

Version: 1 Type: Tab 2 ratings
1 star 2 stars 3 stars 4 stars 5 stars
comments

Gunnar Si At Du Er Homo Tab

Gunnar si  at du er homo from Bare Egil Band
[ Tab from: http://www.guitartabs.cc/tabs/b/bare_egil_band/gunnar_si_at_du_er_homo_tab.html ]
RIFF1:
e-------------------------------------
h-------------------------------------
g-------------------------------------
d-2-2--7-7-7-7-7-7--9-9--7-7-7-7-7-7--
a-2-2--7-7-7-7-7-7--9-9--7-7-7-7-7-7--
e-0-0--5-5-5-5-5-5--7-7--5-5-5-5-5-5--

RIFF2:
e-------------
h-------------
g-------------
d-7--9--7--9--
a-7--9--7--9--
e-5--7--5--7--


By Jonas Cleve
Comments