Barclay James Harvest - Poor Mans Moody Blues Chords & Tabs

 

Poor Mans Moody Blues Chords & Tabs

Barclay James Harvest Chords & Tabs

Version: 1 Type: Tab 0 ratings
1 star 2 stars 3 stars 4 stars 5 stars
comments

Poor Mans Moody Blues Tab

   
Barclay James Harvest - Poor Man's Moody Blues


Panos Karastamatis -  panosweb@hotmail.com

At Solo you can play heavy distorted and with echo if you have wow pedal.

        Em               D
All the nights that I've missed you,

        Em             C
All the nights without end,

        G               D
All the times that I've called you

         C        Em
When you needed a friend.


         Em              D
Now your eyes shine with beauty,

       Em          C
That I missed long ago,

         G          D
Yes, the truth is I love you,

        C       Em
I can't say any more.


       C               D               Em   C     Em    C
Cos' I need you, yes I want you, yes I love you.


     Em           D
As I look from my window

       Em                C
To the streets where you stand

     G              D
I am gazing through dark glass

         C            Em
We can't walk hand in hand.

            Em             D
Though your friends try to tell me

            Em             C
Though your friends you defend,

           G            D
They keep my heart from your heart,

         C          Em
We must meet in the end.


       C               D               Em   C     Em    C
Cos' I need you, yes I want you, yes I love you.


---- SOLO


Solo:

          Am                  G
E|------|-------------12--13--|-12--------------12----|
B|------|-15----------------|----15-13-----15---------|
G|---14--|-------------------|------------------------|
D|------|-------------------|-------------------------|
A|------|-------------------|-------------------------|
E|------|-------------------|-------------------------|
[ Tab from: http://www.guitartabs.cc/tabs/b/barclay_james_harvest/poor_mans_moody_blues_tab.html ]
   F                   E
E|-------------------|------------------------|
B|-15-13--------13--15-|-14-------------------|
G|-------15----------|----------14----14------|
D|-------------------|------------------------|
A|-------------------|------------------------|
E|-------------------|------------------------|

   Am                  G
E|-------------12--13--|-15-13--12-----13--15---|
B|-15----------------|--------------------------|
G|-------------------|--------------------------|
D|-------------------|--------------------------|
A|-------------------|--------------------------|
E|-------------------|--------------------------|

   F                   E
E|-13--12--------12--13--|-12-------------------|
B|-------15----------|--------------------------|
G|-------------------|--------------------------|
D|-------------------|--------------------------|
A|-------------------|--------------------------|
E|-------------------|--------------------------|

   Am                  F
E|-------------------|---------------------|
B|-------------------|---------------------|
G|-14--------14-- |-12---------------------|
D|-------------------|15-12-12--15---------|
A|-------------------|---------------------|
E|-------------------|---------------------|

   Am                  F
E|-------------------|------------------------|
B|-------------------|------------------------|
G|-14--------------14--|-12-------------------|
D|-------------------|----15-12-----12--15----|
A|-------------------|------------------------|
E|-------------------|------------------------|

E|-------------------|-------------------------|
B|-------------------|-------------------------|
G|-12-----------14--15-|-14-----------14-------|
D|-------------------|----------------15-------|
A|-------------------|-------------------------|
E|-------------------|-------------------------|

E|-------------------|------------------------|
B|-------------------|------------------------|
G|-12-----------14--15-|-14-------------------|
D|-------------------|------------------------|
A|-------------------|------------------------|
E|-------------------|------------------------|

Continue with verse and chorus of first part one more time
and the song finishes.
Comments