Barbies Cradle - Tabing Ilog Chords & Tabs

 

Tabing Ilog Chords & Tabs

Barbies Cradle Chords & Tabs

Version: 1 Type: Tab 0 ratings
1 star 2 stars 3 stars 4 stars 5 stars
comments

Tabing Ilog Tab

   
			     Tabing Ilog – Barbie’s Cradle
-------------------------------------------------------------------------------


Tabbed by: string_liznerz	                                        2-8-03
Email: stringlizner@aol.com

Tuning: E a d g b E
 
Intro: strumming (4x)
e|-----0---------0-----------------------------------------------------------|
B|-----5---------5-----------------------------------------------------------|
G|-----4---------4-----------------------------------------------------------|
D|-----4---------4-----------------------------------------------------------|
A|--0------------------------------------------------------------------------|
E|------------0--------------------------------------------------------------|


Verse: (8x) same style
e|-----0-----------------0---------------------0-----------0-----------------|
B|-----5-----------------5---------------------5-----------5-----------------|
G|-----4-----------------4---------------------4-----------4-----------------|
D|-----4-----------------4---------------------4-----------4-----------------|
A|--0---------------------------------------0--------------------------------|
E|-------------------0-----------------------------------0-------------------|
 Sa ilog ang mundo'y tahimik Ako'y nakikinig sa awit ng hangin . . . . 
 

Refrain: (3x)
“Plucking part”
e|---------2-0----0-0----------------------2-0----0-0------------------------|
B|-------------5--5-5--------------------------5--5-5------------------------|
G|------4---------4-4 strumming---------4---------4-4-strumming--------------|
D|----4--------------------------------4----------4-4------------------------|
A|--0------------------------------------------------------------------------|
E|----------------------------------0----------------------------------------|
Sa tuwina'y kandungan niyo ay duyan

e|---------2-0----0-0-----------------2-0-----0-0----------------------------|
B|-------------5--5-5-change to------------5--5-5-change to------------------|
G|------4---------4-4 strumming-----4---------4-4-strumming------------------|
D|----4---------------------------4-----------4-4----------------------------|
A|--0------------------------------------------------------------------------|
E|------------------------------0--------------------------------------------|
Panaginip na walang katapusan . . . . 
Ang ilog hantungan niya'y pangako

Last chords before chorus
e|---------------------------2-0-----0-0-------------------2-0----0-0--------|
B|-------------------------------5---5-5-change to-------------5--5-5--------|
G|------------------------4----------4-4 strumming-------4--------4-4--------|
D|---------------------4-------------4-4---------------4----------4-4--------|
A|------------------0--------------------------------0-----------------------|
E|---------------------------------------------------------------------------|
Ng inyong pagbabalik
==============================================================================









Refrain: Strumming Part (3x)
e|-----2-0-2-0-------------2-0-2-0-------------------------------------------|
B|-----5-5-5-5-keep--------5-5-5-5--keep-------------------------------------|
G|-----4-4-4-4-strumming---4-4-4-4--strumming--------------------------------|
D|-----4-4-4-4-------------4-4-4-4-------------------------------------------|
A|--0------------------------------------------------------------------------|
E|-----------------------0---------------------------------------------------|
[ Tab from: http://www.guitartabs.cc/tabs/b/barbies_cradle/tabing_ilog_tab.html ]
Last chord before chorus
e|-----2-0-2-0---------------------------------------------------------------|
B|-----5-5-5-5-keep----------------------------------------------------------|
G|-----4-4-4-4-strumming-----------------------------------------------------|
D|-----4-4-4-4---------------------------------------------------------------|
A|--0------------------------------------------------------------------------|
E|---------------------------------------------------------------------------|

Chorus: pluck the bass before strumming
e|-------0---------0--------------0----0-------------------------------------|
B|-------5---------5--------------0----5-------------------------------------|
G|-------4---------4--------------4----4-------------------------------------|
D|-------4---------4--------------4----4-------------------------------------|
A|-------x---------x-----------4--x--0---------------------------------------|
E|--2-----------0------------------------------------------------------------|
    Ngiting     kasama ng hangin     Luhang daloy ng 
e|-----0----------------2----------------------------------------------------|
B|-----5----------------4----------------------------------------------------|
G|-----4----------------2----------------------------------------------------|
D|-----4----------------4----------------------------------------------------|
A|-----x----------------2----------------------------------------------------|
E|--2------------------------------------------------------------------------|
    Tubig      Sa ilog na `di naglilihim 
 
Interlude after chorus
e|---------2-0----0-0----------------------2-0----0-0------------------------|
B|-------------5--5-5--------------------------5--5-5------------------------|
G|------4---------4-4 strumming---------4---------4-4-strumming--------------|
D|----4--------------------------------4----------4-4------------------------|
A|--0------------------------------------------------------------------------|
E|----------------------------------0----------------------------------------|    

e|---------2-0----0-0----------------------2-0----0-0------------------------|
B|-------------5--5-5--------------------------5--5-5------------------------|
G|------4---------4-4 strumming---------4---------4-4-strumming--------------|
D|----4--------------------------------4----------4-4------------------------|
A|--0------------------------------------------------------------------------|
E|----------------------------------0----------------------------------------|    

Verse
Refrain
Chorus
Interlude

Outro Bass
e|---------------------------------------------------------------------------|
B|---------------------------------------------------------------------------|
G|---------------------------------------------------------------------------|
D|---------5\7--6------------------------------------------------------------|
A|-----5h7---------7\9---7-----2\4-------------------------------------------|
E|-5h7-----------------------------------------------------------------------|




e|-------------0-upward strum---0—upward strum---0---------------------------|
B|-------------0----------------5----------------0---------------------------|
G|-------------4----------------4----------------6---------------------------|
D|-------------4----------------4----------------6---------------------------|
A|-----5h7--0-----------------0------------------4---break-------------------|
E|-5h------------------------------------------------------------------------|


 
Patern of  the Song

-Intro                                                    -Chorus

-Verse                                                   -Interlude (plucking or strumming)

-Refrain (plucking or strumming) 

-Chorus

-Interlude (plucking or strumming)

-Verse

-Refrain (plucking or strumming)

 




TABING ILOG 
Barbie's Cradle
 

Sa ilog ang mundo'y tahimik 
Ako'y nakikinig sa awit ng hangin 
Habang kayo'y hinihintay 
Na sana'y dumating bago magdilim 
Sa tuwina'y kandungan niyo ay duyan 
Panaginip na walang katapusan 
Ang ilog hantungan niya'y pangako 
Ng inyong pagbabalik 
 
CHORUS:
Ngiting kasama ng hangin 
Luhang daloy ng tubig 
Sa ilog na `di naglilihim 
 
Sa ilog ang mundo'y may himig 
`Di sanang nagpalit ang awit ng hangin 
Habang kayo'y hinihintay 
Mata'y may ngiti, puso'y nananabik
Sa tuwina'y kandungan niyo ay duyan 
Panaginip na walang katapusan 
Ang ilog hantungan niya


“peace out”
Comments