Barathrum - Legions Of Perkele Chords & Tabs

 

Legions Of Perkele Chords & Tabs

Barathrum Chords & Tabs

Version: 1 Type: Tab 0 ratings
1 star 2 stars 3 stars 4 stars 5 stars
comments

Legions Of Perkele Tab

   
BARATHRUM -LEGIONS OF PERKELE
from the album Legion Of Perkele

tabbed by Juha Villman

BASS INTRO

guitar enters
RIFF A
|--------------------------------------------------------------------|
|--------------------------------------------------------------------|
|--------------------------------------------------------------------|
|-7-7-7-7-7-7-5----7-7-7-7-7-7-5----7-7-7-7-7-7-5---2---2-2-2-3-5----|
|-7-7-7-7-7-7-5----7-7-7-7-7-7-5----7-7-7-7-7-7-5---2---2-2-2-3-5----|
|-5-5-5-5-5-5-3----5-5-5-5-5-5-3----5-5-5-5-5-5-3---0---0-0-0-1-3----|
[ Tab from: http://www.guitartabs.cc/tabs/b/barathrum/legions_of_perkele_tab.html ]
RIFF B
|----------------------------------|
|----------------------------------|
|-7---7-5-7---7-5-7---8---10---8---|  X 4
|-7---7-5-7---7-5-7---8---10---8---|
|-5---5-3-5---5-3-5---6----8---6---|

RIFF C
|----------------------------------|
|----------------------------------|
|-5---5-3-5---5-3-5---6----8---6---|  X 2
|-5---5-3-5---5-3-5---6----8---6---|
|-3---3-1-3---3-1-3---4----6---4---|

RIFF D
(I'm not sure bout this...)
|----|
|----|  X SEVERAL TIMES
|----|  this should played while Demonos Sova mumbles 'bout Legions...
|-5--|  Could also be E minor, can't remember.
|-5--|  Play Muted
|-3--|

RIFF A (several times)
RIFF B (4 times)
RIFF C (2 times)
RIFF B (2 times)
RIFF D (many times...)
then back to RIFF B
repeat this loop few times and then play RIFF A 'til the end.

Corrections or something:
juhav@tuusniemi.fi
Comments