Barathrum - Last Day In Heaven Chords & Tabs

 

Last Day In Heaven Chords & Tabs

Barathrum Chords & Tabs

Version: 1 Type: Tab 0 ratings
1 star 2 stars 3 stars 4 stars 5 stars
comments

Last Day In Heaven Tab

   
        BARATHRUM -- LAST DAY IN HEAVEN
        ~~~~~~~~~~~~~~~~~~~~~~~~~~~~~~~

  * = palm mute


Standard tuning (E A D G B E)

Riff 1 (play 6 times)  
[ Tab from: http://www.guitartabs.cc/tabs/b/barathrum/last_day_in_heaven_tab.html ]
e|--------------------------------|--------------------------------|
B|--------------------------------|--------------------------------|
G|--------------------------------|--------------------------------|
D|-----9-----9-----9-----9-----7--|-----9-----9-----9-----9-----5--|
A|-----7-----7-----7-----7-----5--|-----7-----7-----7-----7-----3--|
E|-0-0---0-0---0-0---0-0---0-0----|-0-0---0-0---0-0---0-0---0-0----|
   * *   * *   * *   * *   * *      * *   * *   * *   * *   * *
e|--------------------------------|--------------------------------|
B|--------------------------------|--------------------------------|
G|--------------------------------|--------------------------------|
D|-----9-----9-----9-----9-----7--|-----9-----9-----2--4--5--7-----|
A|-----7-----7-----7-----7-----5--|-----7-----7-----0--2--3--5-----|
E|-0-0---0-0---0-0---0-0---0-0----|-0-0---0-0---0-0----------------|
   * *   * *   * *   * *   * *      * *   * *   * *

Riff 2 (4 times) (No vocals during this riff)

e|-----------------------------------|-----------------------------------|
B|-----------------------------------|-----------------------------------|
G|-----------------------------------|-----------------------------------|
D|-----9-----11--12-----9-----11--12-|-----9-----10--12-14--12-1112-117--|
A|-----7-----9---10-----7-----9---10-|-----7-----9---10-12--10-9-10-9-5--|
E|-0-0---0-0---0----0-0---0-0---0----|-0-0---0-0---0---------------------|
   * *   * *   *    * *   * *   *      * *   * *   *

Riff 1 (4 times)

Riff 2 (4 times)

Riff 3 (until fade-out)

e|---------------------------------------------|
B|---------------------------------------------|
G|------------------------'--------------------| '= let ring on second
D|-9----7-9-11-12-119--7--5----2-4-5-7-4-5-7-9-|    guitar
A|-7----5-7-9--10-9-7--5--3----0-2-3-5-2-3-5-7-|
E|---------------------------------------------|

The End. Very simple song.

Comments