Barathrum - Helluva Agitor Chords & Tabs

 

Helluva Agitor Chords & Tabs

Barathrum Chords & Tabs

Version: 1 Type: Tab 0 ratings
1 star 2 stars 3 stars 4 stars 5 stars
comments

Helluva Agitor Tab

Artist:Barathrum
Album:Saatana
Song: Helluva Agitor
Tabbed by: Astyr Pimeys (Finland)
Standard Tuning (EADGBE)

Riff:1
d:-| |-------9------9-------7-7-9------9------9------12-11-7-12----| |
a:-| |-------7------7-------5-5-7------7------7------10--9--5-10---| |
e:-| |---00----00------00---------00-----00-----00-----------------| |
[ Tab from: http://www.guitartabs.cc/tabs/b/barathrum/helluva_agitor_tab.html ]
Riff:2
d:-| |----------------------------------5-4-------------------5-4-| |
a:-| |---2-2-2-2-2--5-4--2-2-2-2-2--3-2--2-2-2-2-2--5-4-3-2-5-4---| |
e:-| |---0-0-0-0-0--3-2--0-0-0-0-0--------0-0-0-0-0--3-2-----3-2--| |

Riff:3x2
d:-| |----------------7/9/7/9------|---5-5-5-4--| |
a:-| |----------------5/7/5/7---X3-|---3-3-3-2--| |
e:-| |---0-0-0-0-0-----------------|------------| |

Riff:2
Riff:3x2
Comments