Bap - Verdamp Lang Her Chords & Tabs

 

Verdamp Lang Her Chords & Tabs

Bap Chords & Tabs

Version: 2 Type: Tab 0 ratings
1 star 2 stars 3 stars 4 stars 5 stars
comments

Verdamp Lang Her Tab

/** This is my version of this riff.
 * Also ich denke es werden nicht sehr viele Menschen dieses
 * hier lesen, die nicht deutsch sprechen.
 * die anderen Tabs hier scheinen so weit i.O. zu sein.
 * ich hoehre hier und da etwas anderes.
 * dies scheint auf jeden fall das eingaengige riff zu sein 
 * schaut doch mal auf unserer homepage vorbei www.rock-cover.de
 * viel spass, gruss, heiko.sparenberg@gmx.de
[ Tab from: http://www.guitartabs.cc/tabs/b/bap/verdamp_lang_her_tab_ver_2.html ]
e---------------------------|-----------------------------------
h---------------------------|-----------------------------------
g---------------------------|-----------------------------------
d--------9-----10-----9-----|--7--7--9--7--7--7--9--7-----------
a--7--7-----7------7-----7--|--5--5--5--5--5--5--5--5-----------
e---------------------------|-----------------------------------

e---------------------------|-----------------------------------
h---------------------------|-----------------------------------
g--------------5-----4------|-----------------------------------
d--------5------------------|--7--7--9--7--7--7--9--7-----------
a--3--3-----3-----3-----3---|--5--5--5--5--5--5--5--5-----------
e---------------------------|-----------------------------------

Comments