Bansil John Paul - Now And Forever Chords & Tabs

 

Now And Forever Chords & Tabs

Bansil John Paul Chords & Tabs

Version: 1 Type: Tab 0 ratings
1 star 2 stars 3 stars 4 stars 5 stars
comments

Now And Forever Tab

   
"Now and forver"
John Paul Bansil



legend:
/ - slide up to *
\ - slide down to *
p - pull off 
h - hammer
intro: [this maybe easy for some expert]but its fun!

|-------3-----+-----------------+-------3------------|(2x)
|--0----------+-0h1--1/3\1----1-+----1-------1p------|
|-----0---0---+-----------------+-0-------0----------|
|-------------+-0h2--2/4\2----2-+--------------------|
|-------------+-----------------+--------------------|
|--3----------+-----------------+--------------------|

verse:
       G               G		Em		Am7		    D
|----------3-----+--------------+-------------0----+--------0-----0--+-------2h3-+-3-------|(2x)
|------------0---+--------0-----+-------0-------0--+--------1-----1--+-----3-----+----3----|
|----------------+----------0---+-----0---0--------+-----0--0--0--0--+---2-------+-------2-|
|----------------+--------------+---2-------2------+---2-------------+-0---------+---------|
|-----2----------+----0---------+-2----------------+-0---------------+-----------+---------|
|--3-------------+--2-----------+------------------+-----------------+-----------+---------|

	C		   B7			Em
|----------1-----1--+--------2-----2---+-------------0----+--------0-----0-+-------0-----0-+------2h3|
|----------2-----2--+--------0-----0---+-------0-------0--+--------1-----1-+-------1-----1-+----3----|
|-------0--0--0--0--+-----2--2--2--2---+-----0---0--------+-----2--2--2--2-+----0--0--0--0-+--2------|
|-----2-------------+---1--------------+---2-------2------+---2------------+--2------------+0--------|
|--3----------------+-2----------------+-2----------------+-0--------------+0--------------+---------|
|-------------------+------------------+------------------+----------------+---------------+---------|

[repeat intro then verse]


Em	  C	     G		  D
|------------+----------+---------+--------0h2---| (2x)
|------0-----+-----0----+-----0---+------3-----3-|
|---------0--+-------0--+-------0-+----2---------|
|---2--------+---2------+---2-----+--0-----------|
|-2----------+-2--------+-2-------+--------------|
|------------+----------+---------+--------------|
[ Tab from: http://www.guitartabs.cc/tabs/b/bansil_john_paul/now_and_forever_tab.html ]
	Am		Cm  (if it is short, repeat Cm 2x only)
|---------0-----0-+-----------3-----3--|
|-------1-1-----1-+--------4--4-----4--|
|-----2---2--2--2-+------5----5--5--5--|
|---2-------------+----5---------------|
|-0---------------+--3-----------------|
|-----------------+--------------------|

[this part is very hard for beginners, but keep on practicing]
|-----------------------------------------------------------------------------------------------7--7-7h8--7h8-7--|
|-----------------------------------------------------------------------------8--------7-7h8---------------------|
|--------------------------------------------------------------------------------------------9-------------------|
|------5---4-5-5/7-7/9-9---10-9-7-9-9h10-10p9--7----7--------------7-9-10-9------9-9\7---------------------------|
|----5-------------------------------------------10--------7-9-10------------------------------------------------|
|--3----------------------------------------------------10-------------------------------------------------------|

|---------7--------------------------------------------------|
|--10-10----8---------8-8----8/10----10--8-7-5---------------|
|-------------7-7--7------7--------------------7--5-4----4h5-|
|------------------------------------------------------7-----|
|------------------------------------------------------------|
|------------------------------------------------------------|

*
	C		   B7			Em
|----------1-----1--+--------2-----2---+-------------0----+--------0-----0-+-------0-----0-+------2h3|
|----------2-----2--+--------0-----0---+-------0-------0--+--------1-----1-+-------1-----1-+----3----|
|-------0--0--0--0--+-----2--2--2--2---+-----0---0--------+-----2--2--2--2-+----0--0--0--0-+--2------|
|-----2-------------+---1--------------+---2-------2------+---2------------+--2------------+0--------|
|--3----------------+-2----------------+-2----------------+-0--------------+0--------------+---------|
|-------------------+------------------+------------------+----------------+---------------+---------|

intro[ending]
|-------3-----+-----------------+-------3------------|(2x)
|--0----------+-0h1--1/3\1----1-+----1-------1p------|
|-----0---0---+-----------------+-0-------0----------|
|-------------+-0h2--2/4\2----2-+--------------------|
|-------------+-----------------+--------------------|
|--3----------+-----------------+--------------------|

strum it slowly
|--3--|
|--0--|
|--0--|
|--0--|
|--2--|
|--3--|

if you want to comment on my tab, email me at www.jan_pol_3_yahoo.com
thanx!
Comments