Band Of Skulls - Death By Diamonds And Pearls Chords & Tabs

 

Death By Diamonds And Pearls Chords & Tabs

Band Of Skulls Chords & Tabs

Version: 3 Type: Bass Tab

Death By Diamonds And Pearls Bass Tab

Band of Skulls
*Death By Diamonds and Pearls*
Bass Tab

Tuning : Standard

Guitar Intro

*Verse
|---------------------------------|
|---------------------------------|
|-2-2------5-5--------------------| x2
|------------------0-0--0-0-------|

|---------------------------------|-----------------------------|
|---------------------------------|-----------------------------|
|-------5-7-7-5----5-5------------|-------------------55--------|
|-2-2-----------7-------0-0--0-0--|-2-2---5-7-77-5-0------0-0---|

*Pre-chorus
|-----------------------|
|-----------------------|
|-----------------------|
|-0-0-----0-0-----0-0---|

*Chorus
|-------------------------------|
|------------0------------------|
|-2--2---2-0--------------2-----| x2
|------0--------33333--332------|

*Verse
[ Tab from: http://www.guitartabs.cc/tabs/b/band_of_skulls/death_by_diamonds_and_pearls_btab_ver_3.html ]
|--------------------------------------------------|
|--------------------------------------------------|
|-2-2------5-5----------------2-2------5-5---------|
|------------------0-0--0-0-------------------0-0--|

|---------------------------------|-----------------------------|
|---------------------------------|-----------------------------|
|-------5-7-7-5----5-5------------|-------------------55--------|
|-2-2-----------7-------0-0--0-0--|-2-2---5-7-77-5-0------0-0---|

*Pre-chorus
|-----------------------|
|-----------------------|
|-----------------------|
|-0-0-----0-0-----0-0---|


*Chorus
|-------------------------------|
|------------0------------------|
|-2--2---2-0--------------2-----| x2
|------0--------33333--332------|

*Bridge
|-----|  |------------------------------------|
|-----|  |------------------------------------|
|-2-2-|  |-2-2--2-2-22--55----------------22--| x2
|-----|  |------------22----3-3--3-3--3322----|

*Guitar Solo
(Same as chorus)

*Chorus x2

END