Band Of Horses - The Funeral Chords & Tabs

 

The Funeral Chords & Tabs

Band Of Horses Chords & Tabs

Version: 1 Type: Tab

The Funeral Tab

   
I was looking around the internet for a tab to this great song by the Seattle-band Band 
Horses. After a while I found it at their messageboard and thought that I should share 
with you guys. Im really certain it's 100% correct. This is just the demo version and
might need an update for the album! Check 'em out at www.bandofhorses.com

The Intro and main riff:
[ Tab from: http://www.guitartabs.cc/tabs/b/band_of_horses/the_funeral_tab.html ]
  Ab      Eb      Bb      Cm      Cm
E-----11------------------------------------|
B---13--13----11----------------------------|
G-13--------12--12----10------12------12----|
D---------13--------12--12--13--13--13--13--|
A-----------------13------15------15--------|
E-------------------------------------------|

Verse Chords: Ab Eb Bb Cm

  Ab  Eb  (Eb*)  Bb  Cm   <-- I'm not sure which shape of Eb is used...
E-11--11--(6)----6---8--|
B-12--11--(8)----6---8--|
G-12--12--(8)----7---8--|
D-----------------------|
A-----------------------|
E-----------------------|

Chorus (standard barre chords): Bb Eb Ab Ab

Ending Chords (both barre chords & verse chord shapes): Ab Eb Bb Cm

Thanks to "jake" at Band of Horses messageboard!