Bamboo - War Of Hearts And Minds Chords & Tabs

 

War Of Hearts And Minds Chords & Tabs

Bamboo Chords & Tabs

Version: 2 Type: Tab 0 ratings
1 star 2 stars 3 stars 4 stars 5 stars
comments

War Of Hearts And Minds Tab

   
War of hearts and minds by bamboo
jear d[o_0]b (just listen to the song!!)
standard tuning (EBGDAE)

Intro
|---8--------8/3--------------|
|-----------------------------|
|-----------------------------| (2x) <---Intro and solo
|---0---0--0---------0--0-----|
|---8---8--8---------3--3--3--|
|---10--8--7---------3--2--0--|

VERSE 1 and 2
chords:
  C     G
|---| |-3-|
|-3-| |-2-|
|-2-| |---| (3x)
|---| |---|
|-1-| |-3-|
|---| |-3-|
[ Tab from: http://www.guitartabs.cc/tabs/b/bamboo/war_of_hearts_and_minds_tab_ver_2.html ]
CHORUS:
chords:
 C9     G
|---| |-3-|
|-3-| |-2-|
|-2-| |---| (3x) <- after this 
|---| |---|
|-3-| |-3-|
|-3-| |-3-|
      
  F     C     G
|-1-| |---| |-3-|
|-2-| |-3-| |-2-|
|-3-| |-2-| |---| (2x) <-this is the second part
|-3-| |---| |---|
|-1-| |-1-| |-3-|
|-1-| |---| |-3-|

Intro:
verse1:
chorus1:
verse2:
chorus2:
solo: (or intro)
chorus:
that's all folks!! Have a nice day sucka!! 
creator - jear
Comments