Bamboo - Noypi Chords & Tabs

 

Noypi Chords & Tabs

Bamboo Chords & Tabs

Version: 6 Type: Bass Tab 0 ratings
1 star 2 stars 3 stars 4 stars 5 stars
comments

Noypi Bass Tab

'NOypi
Tabed-levonLopez
email:guitarlevongear

  
      intro  Intro:start!
intro intro  Intro:bass
E|--------------------------4-------------------------4--|
A|--7-1-6h7-6-1--7-5v-4h5p4---7-1-6h7-6-1-7-5v--4h5p4--1-|
D|-------------------------------------------------------|
G|-------------------------------------------------------|

     verse 1
E|---------------------------------4---------------------|
A|--7--76--65--54-4--7--76--65--54-----------------------|
D|-------------------------------------------------------|
G|-------------------------------------------------------| 

     Tingnan mo ang iyong palad 
               Kalyado mong kamay sa hirap ng buhay
     Dami mong problema nakuha mo pang ngumiti 
               Noypi ka nga, astig! 

E|-------------------------------------------------------|
A|---77777777---66666666---55555555---44444444444444-----|
D|-------------------------------------------------------|
G|-------------------------------------------------------|
    Saan ka man naroroon,
                Wag kang matatakot 
                          sa baril o patalim 
                                    Sa bukas na madilim..

E|-------------------------------------------------------|
A|--77777777---66666666---55555555---44444444------------|
D|-------------------------------------------------------|
G|-------------------------------------------------------|
    Hoy, pinoy ako! Buo aking loob,
                               may agimat ang dugo ko
E|-------------------------------------------------------|
A|--77777777---66666666---55555555--4444444--------------|
D|-------------------------------------------------------|
G|-------------------------------------------------------|
    Hoy, oh pinoy ako!
                            May agimat ang dugo ko..

E|--------------------------4-------------------------4--|
A|--7-1-6h7-6-1--7-5v-4h5p4---7-1-6h7-6-1-7-5v--4h5p4--1-|
D|-------------------------------------------------------|
G|-------------------------------------------------------|

 
 Pareho sa unang verse:

  Sinisid ko ang dagat
          Nilibot ko ang mundo 
  Nasa puso ko pala hinahanap kong gulo 
          Ilang beses na akong muntikang mamatay 
  Oh, alam ko ang sikreto kaya't nandito pa't buhay.

  Oh sabi nila may anting anting ako pero di nila
          Alam na diyos ang dahilan ko..
[ Tab from: http://www.guitartabs.cc/tabs/b/bamboo/noypi_btab_ver_6.html ]
  Hoy, pinoy ako!
          Buo aking loob, may agimat ang dugo....
  hoy, oh pinoy ako!
          May agimat ang dugo ko..

E|------------------------------------------------------|
A|---77777777---66666666---55555555---44444444444444----|
D|------------------------------------------------------|
G|------------------------------------------------------|
    Ohh...ooohh...
E|------------------------------------------------------|
A|---77777777---66666666---55555555---44444444444444----|
D|------------------------------------------------------|
G|------------------------------------------------------|

E|------------------------------------------------------|
A|---77777777---66666666---55555555---44444444444444----|
D|------------------------------------------------------|
G|------------------------------------------------------|

E|----------------4-----------4-------------------------|
A|--7--76--65--54---76--65--54--------------------------|
D|------------------------------------------------------|
G|------------------------------------------------------| 


E|------------------------------------------------------|
A|--7--76--65--54-4--444444444--------------------------|
D|------------------------------------------------------|
G|------------------------------------------------------| 
  Dinig mo ba ang bulong ng lahi mo? 
                Isigaw mo kapatid, 
                  ang himig natin..
    pause!2second
E|------------------------------------------------------|
A|--77777777---66666666---55555555---44444444-----------|
D|------------------------------------------------------|
G|------------------------------------------------------|
    Hoy, pinoy ako! Buo aking loob,
                               may agimat ang dugo ko
E|------------------------------------------------------|
A|--77777777---66666666---55555555--4444444-------------|
D|------------------------------------------------------|
G|------------------------------------------------------|
    Hoy, oh pinoy ako!
                            May agimat ang dugo ko..


E|------------------------------------------------------|
A|---77777777---66666666---55555555---44444444444444----|
D|------------------------------------------------------|
G|------------------------------------------------------|
    Ohh...ooohh...
E|------------------------------------------------------|
A|--77777777---66666666---55555555---44444444-----------|
D|------------------------------------------------------|
G|------------------------------------------------------|
Comments