Bamboo - Noypi Chords & Tabs

 

Noypi Chords & Tabs

Bamboo Chords & Tabs

Version: 5 Type: Bass Tab 0 ratings
1 star 2 stars 3 stars 4 stars 5 stars
comments

Noypi Bass Tab

   
-------------------------------------------------------------------------------
			     Noypi-Bamboo
-------------------------------------------------------------------------------

Tabbed By : Karlo Blanco
e-mail: simply_arl7@yahoo.com

Tuning:Standard

Intro
G|---------6-7-6-----7--5--4h5p4---------------------------------------------|
D|------7---------7---------------5------------------------------------------|
A|--5------------------------------------------------------------------------|
E|---------------------------------------------------------------------------|

G|---------6-7-6-----7--5--4h5p4---------------------------------------------|
D|------7---------7---------------5------------------------------------------|
A|--5------------------------------------------------------------------------|
E|---------------------------------------------------------------------------|

Verse
G|---------------------------------------------------------------------------|
D|---------------------------------------------------------------------------|
A|--5---7-4---5-3---5-2------------------------------------------------------|
E|-----------------------3---------------------------------------------------|

G|---------------------------------------------------------------------------|
D|---------------------------------------------------------------------------|
A|--5---7-4---5-3---5-2------------------------------------------------------|
E|-----------------------3---------------------------------------------------|
[ Tab from: http://www.guitartabs.cc/tabs/b/bamboo/noypi_btab_ver_5.html ]
G|---------------------------------------------------------------------------|
D|---------------------------------------------------------------------------|
A|--5-5-5-5-5-5-5-5-------------------3-3-3-3-3-3-3-3------------------------|
E|-------------------5-5-5-5-5-5-5-5-------------------3-3-3-3-3-3-3-3-3-3-3-|

Chorus 2x
G|---------------------------------------------------------------------------|
D|---------------------------------------------------------------------------|
A|---------------------------------------------------------------------------|
E|--/10--10-10-10---5--5-5-5--8-8-8-8-8-8-8-8--3-3-3-3-3-3-3-3---------------|

(repeat verse)
(repeat chorus)
Interlude (ohhhoooohhhhuuuuuuohh) -just repeat chorus 2x

Solo
G|---------------------------------------------------------------------------|
D|---------------------------------------------------------------------------|
A|--5-5-5-5-5-5-5-5-------------------3-3-3-3-3-3-3-3--5-5-5-5-5-5-5-5-------|
E|-------------------9-9-9-9-9-9-9-9-----------------------------------------|

G|---------------------------------------------------------------------------|
D|---------------------------------------------------------------------------|
A|--5-5-5-5-5-5-5-5-------------------3-3-3-3-3-3-3-3--5-5-5-5-5-5-5-5-------|
E|-------------------9-9-9-9-9-9-9-9-----------------------------------------|

(Repeat last part of verse)
(repeat chorus)
(repeat solo) fade...

VR-5!!!kita kita ulit doon...hi sa mga kabanda 
riffs),jasper(drums)
ako nga pla bass (halata ba???)hehe
kay xavier dela cruz (mr.canada) hehe n kay kaye flores(feat. daw sa wag na wag mong 
cge,kita kits next tym


| /  slide up
| \  slide down
| h  hammer-on
| p  pull-off
| ~  vibrato
| +  harmonic
| x  Mute note
===============================================================================
Comments