Bamboo - Noypi Chords & Tabs

 

Noypi Chords & Tabs

Bamboo Chords & Tabs

Version: 1 Type: Bass Tab 0 ratings
1 star 2 stars 3 stars 4 stars 5 stars
comments

Noypi Bass Tab

from: ulo (etitskoymalaki@yahoo.com)
song: noypi

5 string bass at BEADG


intro:

|--------6h7-6-----7-5----4h5p4------
|----7----------7---------------5--7-
|-5----------------------------------(2x)
|------------------------------------
|------------------------------------


verse:

|---------------------------
|---------------------------
|-5---7-------3---5---------(2x)
|-------5---7-------3---5-7-
|---------------------------

|---------------------------------
|---------------------------------
|-5-5-5-5-5-5-7-7-----------------
|-----------------5-5-5-5-5-5-7-7-
|---------------------------------

---------------------------------| |-----------------|
---------------------------------| |-----------------|
-3-3-3-3-3-3-5-5-----------------| |-----------------|
-----------------3-3-3-3-3-3-5-5-| |-3-3-3-3-3-3-3-3-|
---------------------------------| |-----------------|


chorus:

|-----------------------------------------------------
|-----------------------------------------------------(2x)
|-5-5--5--5-----------3-3-3-3-3-3-3-3-----------------
|-----------5-5--5--5-----------------3-3-3-3-3-3-3-3-
|-----------------------------------------------------

(repeat intro, repeat verse)

chorus:

|-----------------------------------------------------
|-----------------------------------------------------
|-5-5--5--5-----------3-3-3-3-3-3-3-3-----------------(2x)
|-----------5-5--5--5-----------------3-3-3-3-3-3-3-3-
|-----------------------------------------------------

|---------------------------------
|---------------------------------
|-5-5-5-5-5-5-5-5-----------------
|-----------------5-5-5-5-5-5-5-5-
|---------------------------------

---------------------------------|
---------------------------------|
-3-3-3-3-3-3-3-3-----------------|(2x)
-----------------3-3-3-3-3-3-3-3-|
---------------------------------|


solo:

|-----------------------------------------------------
|-----------------------------------------------------
|-5-5--5--5-----------3-3-3-3-3-3-3-3-----------------(2x)
|-----------5-5--5--5-----------------3-3-3-3-3-3-3-3-
|-----------------------------------------------------


verse:

|---------------------------------
|---------------------------------
|-5-5-5-5-5-5-7-7-----------------
|-----------------5-5-5-5-5-5-7-7-
|---------------------------------
[ Tab from: http://www.guitartabs.cc/tabs/b/bamboo/noypi_btab.html ]
---------------------------------|
---------------------------------|
-3-3-3-3-3-3-5-5-----------------|(2x)
-----------------3-3-3-3-3-3-5-5-|
---------------------------------|

|---------------------------------
|---------------------------------
|-5-5-5-5-5-5-7-7-----------------
|-----------------5-5-5-5-5-5-7-7-
|---------------------------------

---------------------------------| |-----------------|
---------------------------------| |-----------------|
-3-3-3-3-3-3-5-5-----------------| |-----------------|
-----------------3-3-3-3-3-3-5-5-| |-3-3-3-3-3-3-3-3-|
---------------------------------| |-----------------|


chorus:

|-----------------------------------------------------
|-----------------------------------------------------
|-5-5--5--5-----------3-3-3-3-3-3-3-3-----------------(2x)
|-----------5-5--5--5-----------------3-3-3-3-3-3-3-3-
|-----------------------------------------------------

|---------------------------------
|---------------------------------
|-5-5-5-5-5-5-5-5-----------------
|-----------------5-5-5-5-5-5-5-5-
|---------------------------------

---------------------------------|
---------------------------------|
-3-3-3-3-3-3-3-3-----------------|(2x)
-----------------3-3-3-3-3-3-3-3-|
---------------------------------|


(repeat solo)

end with D till fade out..
=============================================================================

lyrics:

tignan mo...
ang iyong palad,
kalyado mong kamay
sa hirap ng buhay

ang dami mong problema
nakuha mo pang ngumiti
noypi ka nga, astig

saan ka man naroroon,
wag kang matatakot
sa baril o patalim,
sa landas madilim

hoy!! pinoy ako
buo aking loob, 
may agimat ang dugo ko
hoy!! ohh, pinoy ako
may agimat ang dugo ko..

sinisid ko ang dagat,
nilibot ko ang mundo
nasa puso ko pala
hinahanap kong pulo

ilang beses na akong 
muntikang mamatay..
oh alam ko ang sikreto 
kaya't andito pa't buhay

oh sabi nila..
may anting anting ako
pero di nila alam
na ang diyos ang dahilan 

hoy!! pinoy ako
buo aking loob, 
may agimat ang dugo ko
hoy!! ohh, pinoy ako
may agimat ang dugo ko..

ohhh oh oh oh
hoo hoo hoo
ohhh oh oh oh
hoo hoo hoo

batid mo ba,
ang bulong ng lahi mo
isigaw mo kapatid
ang himig natin....

hoy!! pinoy ako
buo aking loob, 
may agimat ang dugo ko
hoy!! ohh, pinoy ako
may agimat ang dugo ko..

ohhh oh oh oh
hoo hoo hoo
ohhh oh oh oh
hoo hoo hoo

end!!!!!!!!!


any questions or comments? email me at etitskoymalaki@yahoo.com...
Comments