Bamboo - Much Has Been Said Chords & Tabs

 

Much Has Been Said Chords & Tabs

Bamboo Chords & Tabs

Version: 1 Type: Tab

Much Has Been Said Tab

Song= Much has been said 
Band= Bamboo 
Tabbed By= Noel M.De Guzman 
Tuning= (EADGBe) 

Dedicated to Bern (hehehe)
Any comments or correction please email me at noellife2000@yahoo.com	

Use echo, delay, or hall with clean guitar

e|-9-------------------10-------12------------| 
B|-10---10-9---12---------14-10------9h10-9---| 
G|-9---------9------11---------------9----9---| 
D|-0----11------------------------------------| 
A|--------------------------------------------| 
E|--------------------------------------------| 
[ Tab from: http://www.guitartabs.cc/tabs/b/bamboo/much_has_been_said_tab.html ]
e|----9----------------------------------| 
B|-------10------9---------10x-----------| 
G|-11-----9----9---11------11x-9---------| 
D|----------------------11-----11--------| 
A|---------------------------------------| 
E|---------------------------------------| 

e|-------------------------12------------| 
B|------------12--------10---------------| 
G|---9-----11------11-9------------------| 
D|-9---9---------------------------------| 
A|---------------------------------------| 
E|---------------------------------------|