Bamboo - Mr Clay Chords & Tabs

 

Mr Clay Chords & Tabs

Bamboo Chords & Tabs

Version: 5 Type: Tab 0 ratings
1 star 2 stars 3 stars 4 stars 5 stars
comments

Mr Clay Tab

   
Song: Mr.Clay
Band: Bamboo
Album: as the music plays
Tabbed by: Sam Tud

this is my first tab..hope you like it guys!
medyo katunog naman eh! kaya pede na din! pagtapos niyo
pong matugtog... pede pong paki rate??? thanks a lot!

Standard Tuning: EADGBE

   A1       A2      A3       F        G
 x022xx   x032xx  x042xx   133xxx  355xxx

INTRO: A1-A2-A3-A2(2x?)


STANZA I
	"Red Sun dawn..."
    e|----x----|----x----|----x----|----x----|\-|
    B|----x----|----x----|----x----|----x-------| \
    G|----2----|----2----|----2----|----2-------|  \ two
    D|----2----|----3----|----4----|----3-------|  / times
    A|----0----|----0----|----0----|----0-------| /
    E|----x----|----x----|----x----|----x-------|
	    A1	       A2	  A3	     A2


then:
	"By this hate that you help the world create..."
	e|--x-x-x-x-x-x-x-x--|--x-x-x-x-x-x-x-x--|--x-x-x-x-x-x-x-x--|
	B|--x-x-x-x-x-x-x-x--|--x-x-x-x-x-x-x-x--|--x-x-x-x-x-x-x-x--|
	G|--2-2-2-2-2-2-2-2--|--2-2-2-2-2-2-2-2--|--2-2-2-2-2-2-2-2--|
	D|--2-2-2-2-2-2-2-2--|--3-3-3-3-3-3-3-3--|--4-4-4-4-4-4-4-4--|
	A|--0-0-0-0-0-0-0-0--|--0-0-0-0-0-0-0-0--|--0-0-0-0-0-0-0-0--|
	E|--x-x-x-x-x-x-x-x--|--x-x-x-x-x-x-x-x--|--x-x-x-x-x-x-x-x--|
	   	A1	    	      A2	     	  A3

	"I'm the war that comes to you..."
          e|--x-x-x-x-x-x-x-x--|--x-x-x-x-x-x-x-x----|
    B|--x-x-x-x-x-x-x-x--|--x-x-x-x-x-x-x-x----------|
    G|--x-x-x-x-x-x-x-x--|--x-x-x-x-x-x-x-x----------|
    D|--3-3-3-3-3-3-3-3--|--5-5-5-5-5-5-5-5----------|
    A|--3-3-3-3-3-3-3-3--|--5-5-5-5-5-5-5-5----------|
    E|--1-1-1-1-1-1-1-1--|--3-3-3-3-3-3-3-3----------|
		  F		       G

	"I've been told..."
	e|----x----|----x----|----x----|----x----|
	B|----x----|----x----|----x----|----x----|
	G|----2----|----2----|----2----|----2----|
	D|----2----|----3----|----4----|----3----|
	A|----0----|----0----|----0----|----0----|
	E|----x----|----x----|----x----|----x----|
	    A1	       A2	  A3	     A2

	"By this movement manifest..."
	e|--x-x-x-x-x-x-x-x--|--x-x-x-x-x-x-x-x--|--x-x-x-x-x-x-x-x--|
	B|--x-x-x-x-x-x-x-x--|--x-x-x-x-x-x-x-x--|--x-x-x-x-x-x-x-x--|
	G|--2-2-2-2-2-2-2-2--|--2-2-2-2-2-2-2-2--|--2-2-2-2-2-2-2-2--|
	D|--2-2-2-2-2-2-2-2--|--3-3-3-3-3-3-3-3--|--4-4-4-4-4-4-4-4--|
	A|--0-0-0-0-0-0-0-0--|--0-0-0-0-0-0-0-0--|--0-0-0-0-0-0-0-0--|
	E|--x-x-x-x-x-x-x-x--|--x-x-x-x-x-x-x-x--|--x-x-x-x-x-x-x-x--|
	   	A1	    	      A2	     	  A3

	"Now the blind that follow you..."
	e|--x-x-x-x-x-x-x-x--|--x-x-x-x-x-x-x-x--|
	B|--x-x-x-x-x-x-x-x--|--x-x-x-x-x-x-x-x--|
	G|--x-x-x-x-x-x-x-x--|--x-x-x-x-x-x-x-x--|
	D|--3-3-3-3-3-3-3-3--|--5-5-5-5-5-5-5-5--|
	A|--3-3-3-3-3-3-3-3--|--5-5-5-5-5-5-5-5--|
	E|--1-1-1-1-1-1-1-1--|--3-3-3-3-3-3-3-3--|
		  F		       G


CHORUS:

	"All by my self..."
	e|--x-x-x-x-x-x-x-x--|--x-x-x-x-x-x-x-x--|--x-x-x-x-x-x-x-x--|--x-x-x-x-x-x-x-x--|
	B|--x-x-x-x-x-x-x-x--|--x-x-x-x-x-x-x-x--|--x-x-x-x-x-x-x-x--|--x-x-x-x-x-x-x-x--|
	G|--x-x-x-x-x-x-x-x--|--x-x-x-x-x-x-x-x--|--x-x-x-x-x-x-x-x--|--x-x-x-x-x-x-x-x--|
	D|--5-5-5-5-5-5-5-5--|--7-7-7-7-7-7-7-7--|--3-3-3-3-3-3-3-3--|--5-5-5-5-5-5-5-5--|
	A|--3-3-3-3-3-3-3-3--|--7-7-7-7-7-7-7-7--|--3-3-3-3-3-3-3-3--|--5-5-5-5-5-5-5-5--|
	E|--3-3-3-3-3-3-3-3--|--5-5-5-5-5-5-5-5--|--1-1-1-1-1-1-1-1--|--3-3-3-3-3-3-3-3--|
		 G		      A			  F	               G

	"I'm stronger now..."
	e|--x-x-x-x-x-x-x-x--|--x-x-x-x-x-x-x-x--|--x-x-x-x-x-x-x-x--|
	B|--x-x-x-x-x-x-x-x--|--x-x-x-x-x-x-x-x--|--x-x-x-x-x-x-x-x--|
	G|--x-x-x-x-x-x-x-x--|--x-x-x-x-x-x-x-x--|--x-x-x-x-x-x-x-x--|
	D|--5-5-5-5-5-5-5-5--|--7-7-7-7-7-7-7-7--|--3-3-3-3-3-3-3-3--|
	A|--3-3-3-3-3-3-3-3--|--7-7-7-7-7-7-7-7--|--3-3-3-3-3-3-3-3--|
	E|--3-3-3-3-3-3-3-3--|--5-5-5-5-5-5-5-5--|--1-1-1-1-1-1-1-1--|
		  G		      A			   F

THEN:
	"Hurt me..."
    e|--x-x-x--|--x-x-x-x--|\-|
    B|--x-x-x--|--x-x-x-x-----| \
    G|--x-x-x--|--x-x-x-x-----|  \ three
    D|--5-5-5--|--3-3-3-3-----|  / times
    A|--5-5-5--|--1-1-1-1-----| /
    E|--3-3-3--|--1-1-1-1-----|

	(INTRO:A1-A2-A3-A2)

VERSE II(rap part):
[ Tab from: http://www.guitartabs.cc/tabs/b/bamboo/mr_clay_tab_ver_5.html ]
	"Talk too much motherfucker hush..."
    e|--x-x-x-x-x-x-x-x--|--x-x-x-x-x-x-x-x--|--x-x-x-x-x-x-x-x--|--x-x-x-x-x-x-x-x--|\--|
    B|--x-x-x-x-x-x-x-x--|--x-x-x-x-x-x-x-x--|--x-x-x-x-x-x-x-x--|--x-x-x-x-x-x-x-x------| \
    G|--2-2-2-2-2-2-2-2--|--2-2-2-2-2-2-2-2--|--2-2-2-2-2-2-2-2--|--2-2-2-2-2-2-2-2------|  \ two
    D|--2-2-2-2-2-2-2-2--|--3-3-3-3-3-3-3-3--|--4-4-4-4-4-4-4-4--|--3-3-3-3-3-3-3-3------|  / times
    A|--0-0-0-0-0-0-0-0--|--0-0-0-0-0-0-0-0--|--0-0-0-0-0-0-0-0--|--0-0-0-0-0-0-0-0------| /
    E|--x-x-x-x-x-x-x-x--|--x-x-x-x-x-x-x-x--|--x-x-x-x-x-x-x-x--|--x-x-x-x-x-x-x-x------|
	    	A1	     	       A2	  	   A3	     	      A2

THEN:
	"So now you got the fires rockin..."				 "Your place in history..."
	e|--x-x-x-x-x-x-x-x--|--x-x-x-x-x-x-x-x--|--x-x-x-x-x-x-x-x--|  e|--x-x-x-x-x-x-x-x--|--x-x-x-x-x-x-x-x--|
	B|--x-x-x-x-x-x-x-x--|--x-x-x-x-x-x-x-x--|--x-x-x-x-x-x-x-x--|  B|--x-x-x-x-x-x-x-x--|--x-x-x-x-x-x-x-x--|
	G|--2-2-2-2-2-2-2-2--|--2-2-2-2-2-2-2-2--|--2-2-2-2-2-2-2-2--|  G|--x-x-x-x-x-x-x-x--|--x-x-x-x-x-x-x-x--|
	D|--2-2-2-2-2-2-2-2--|--3-3-3-3-3-3-3-3--|--4-4-4-4-4-4-4-4--|  D|--3-3-3-3-3-3-3-3--|--5-5-5-5-5-5-5-5--|
	A|--0-0-0-0-0-0-0-0--|--0-0-0-0-0-0-0-0--|--0-0-0-0-0-0-0-0--|  A|--3-3-3-3-3-3-3-3--|--5-5-5-5-5-5-5-5--|
	E|--x-x-x-x-x-x-x-x--|--x-x-x-x-x-x-x-x--|--x-x-x-x-x-x-x-x--|  E|--1-1-1-1-1-1-1-1--|--3-3-3-3-3-3-3-3--|
	    	A1	     	       A2	  	   A3	     	      F			   G

(REPEAT CHORUS)

ADLIB/SOLO:

    [------------------------------------------------------------------------------|
Bass:   [--------------------------------------------------------------------------|
        [---------2--3--5-----------2-3-5--------0-1-3-----------2-3-5-------------| 2X
        [--3-3--3----------5-5--5-------- 1-1--1--------3-3--3---------------------|

Guitar:    e|--x-x-x-x-x-x-x-x--|--x-x-x-x-x-x-x-x--|--x-x-x-x-x-x-x-x--|--x-x-x-x-x-x-x-x--|
    B|--x-x-x-x-x-x-x-x--|--x-x-x-x-x-x-x-x--|--x-x-x-x-x-x-x-x--|--x-x-x-x-x-x-x-x---------|
    G|--x-x-x-x-x-x-x-x--|--x-x-x-x-x-x-x-x--|--x-x-x-x-x-x-x-x--|--x-x-x-x-x-x-x-x---------|
    D|--5-5-5-5-5-5-5-5--|--7-7-7-7-7-7-7-7--|--3-3-3-3-3-3-3-3--|--5-5-5-5-5-5-5-5---------|
    A|--3-3-3-3-3-3-3-3--|--7-7-7-7-7-7-7-7--|--3-3-3-3-3-3-3-3--|--5-5-5-5-5-5-5-5---------|
    E|--3-3-3-3-3-3-3-3--|--5-5-5-5-5-5-5-5--|--1-1-1-1-1-1-1-1--|--3-3-3-3-3-3-3-3---------|
		 G		      A			  F	               G


	e|--x-x-x-x-x-x-x-x--|--x-x-x-x-x-x-x-x--|--x-x-x-x-x-x-x-x--|
	B|--x-x-x-x-x-x-x-x--|--x-x-x-x-x-x-x-x--|--x-x-x-x-x-x-x-x--|
	G|--x-x-x-x-x-x-x-x--|--x-x-x-x-x-x-x-x--|--x-x-x-x-x-x-x-x--|
	D|--5-5-5-5-5-5-5-5--|--7-7-7-7-7-7-7-7--|--3-3-3-3-3-3-3-3--|
	A|--3-3-3-3-3-3-3-3--|--7-7-7-7-7-7-7-7--|--3-3-3-3-3-3-3-3--|
	E|--3-3-3-3-3-3-3-3--|--5-5-5-5-5-5-5-5--|--1-1-1-1-1-1-1-1--|
		  G		      A			   F

THEN:

    e|--x-x-x--|--x-x-x-x--|\-|
    B|--x-x-x--|--x-x-x-x-----| \
    G|--x-x-x--|--x-x-x-x-----|  \ three
    D|--5-5-5--|--3-3-3-3-----|  / times
    A|--5-5-5--|--1-1-1-1-----| /
    E|--3-3-3--|--1-1-1-1-----|


LAST VERSE:

	"Peace and Flowers..."
	e|----x----|----x----|----x----|----x----|
	B|----x----|----x----|----x----|----x----|
	G|----2----|----2----|----2----|----2----|
	D|----2----|----3----|----4----|----3----|
	A|----0----|----0----|----0----|----0----|
	E|----x----|----x----|----x----|----x----|
	    A1	       A2	  A3	     A2


	"It's been written,it's been said..."
	e|----x----|----x----|----x----|----x----|
	B|----x----|----x----|----x----|----x----|
	G|----2----|----2----|----2----|----2----|
	D|----2----|----3----|----4----|----3----|
	A|----0----|----0----|----0----|----0----|
	E|----x----|----x----|----x----|----x----|
	    A1	       A2	  A3	     A2


	"Those days are over..."
	e|--x-x-x-x-x-x-x-x--|--x-x-x-x-x-x-x-x--|
	B|--x-x-x-x-x-x-x-x--|--x-x-x-x-x-x-x-x--|
	G|--x-x-x-x-x-x-x-x--|--x-x-x-x-x-x-x-x--|
	D|--3-3-3-3-3-3-3-3--|--5-5-5-5-5-5-5-5--|
	A|--3-3-3-3-3-3-3-3--|--5-5-5-5-5-5-5-5--|
	E|--1-1-1-1-1-1-1-1--|--3-3-3-3-3-3-3-3--|
		  F		       G

(RepEAT ChorUs)

END

whew! sana masiyahan kayo! kung may mali po... kayo na lang po mag bago...
pero sa tingin ko konti lang naman ung mali eh...
kung gusto niyo akong murahin dahil puro mali.. email niyo nalang ako..blitzkreigbop12@yahoo.com
astig! \m/_
Comments