Bamboo - Mr Clay Chords & Tabs

 

Mr Clay Chords & Tabs

Bamboo Chords & Tabs

Version: 3 Type: Tab 0 ratings
1 star 2 stars 3 stars 4 stars 5 stars
comments

Mr Clay Tab

tabber: ulo (etitskoymalaki@yahoo.com)
song:   mr.clay
band:   bamboo
tuning: EADGBe


intro:

|-----------------|-----------------|-----------------|-----------------|
|-----------------|-----------------|-----------------|-----------------|
|-----------------|-----------------|-----------------|-----------------|(2x)
|-7-7-7-7-7-7-7-7-|-7-7-7-7-7-7-7-7-|-7-7-7-7-7-7-7-7-|-7-7-7-7-7-7-7-7-|
|-7-7-7-7-7-7-7-7-|-7-7-7-7-7-7-7-7-|-7-7-7-7-7-7-7-7-|-7-7-7-7-7-7-7-7-|
|-5-5-5-5-5-5-5-5-|-6-6-6-6-6-6-6-6-|-7-7-7-7-7-7-7-7-|-6-6-6-6-6-6-6-6-|


verse1:

|-----------------|-----------------|-----------------|-----------------|
|-----------------|-----------------|-----------------|-----------------|
|-----------------|-----------------|-----------------|-----------------|(2x)
|-7---------------|-7---------------|-7---------------|-7---------------|
|-7---------------|-7---------------|-7---------------|-7---------------|
|-5---------------|-6---------------|-7---------------|-6---------------|

|-----------------|-----------------|-----------------|
|-----------------|-----------------|-----------------|
|-----------------|-----------------|-----------------|
|-7-7-7-7-7-7-7-7-|-7-7-7-7-7-7-7-7-|-7-7-7-7-7-7-7-7-|
|-7-7-7-7-7-7-7-7-|-7-7-7-7-7-7-7-7-|-7-7-7-7-7-7-7-7-|
|-5-5-5-5-5-5-5-5-|-6-6-6-6-6-6-6-6-|-7-7-7-7-7-7-7-7-|

|-----------------|-----------------|
|-----------------|-----------------|
|-----------------|-----------------|
|-3-3-3-3-3-3-3-3-|-5-5-5-5-5-5-5-5-|
|-3-3-3-3-3-3-3-3-|-5-5-5-5-5-5-5-5-|
|-1-1-1-1-1-1-1-1-|-3-3-3-3-3-3-3-3-|


verse2:

|-----------------|-----------------|-----------------|-----------------|
|-----------------|-----------------|-----------------|-----------------|
|-----------------|-----------------|-----------------|-----------------|
|-7-----7-----7---|-7-----7-----7---|-7-----7-----7---|-7-----7-----7---|
|-7-----7-----7---|-7-----7-----7---|-7-----7-----7---|-7-----7-----7---|
|-5-----5-----5---|-6-----6-----6---|-7-----7-----7---|-6-----6-----6---|

|-----------------|-----------------|-----------------|
|-----------------|-----------------|-----------------|
|-----------------|-----------------|-----------------|
|-7-----7-----7---|-7-----7-----7---|-7-----7-----7---|
|-7-----7-----7---|-7-----7-----7---|-7-----7-----7---|
|-5-----5-----5---|-6-----6-----6---|-7-----7-----7---|

|-----------------|-----------------|
|-----------------|-----------------|
|-----------------|-----------------|
|-3-3-3-3-3-3-3-3-|-5-5-5-5-5-5-5-5-|
|-3-3-3-3-3-3-3-3-|-5-5-5-5-5-5-5-5-|
|-1-1-1-1-1-1-1-1-|-3-3-3-3-3-3-3-3-|


chorus:

|-----------------|-----------------|-----------------|-----------------|
|-----------------|-----------------|-----------------|-----------------|
|-----------------|-----------------|-----------------|-----------------|
|-5-5-5-5-5-5-5-5-|-7-7-7-7-7-7-7-7-|-3-3-3-3-3-3-3-3-|-5-5-5-5-5-5-5-5-|
|-5-5-5-5-5-5-5-5-|-7-7-7-7-7-7-7-7-|-3-3-3-3-3-3-3-3-|-5-5-5-5-5-5-5-5-|
|-3-3-3-3-3-3-3-3-|-5-5-5-5-5-5-5-5-|-1-1-1-1-1-1-1-1-|-3-3-3-3-3-3-3-3-|

|-----------------|-----------------|-----------------|
|-----------------|-----------------|-----------------|
|-----------------|-----------------|-----------------|
|-5-5-5-5-5-5-5-5-|-7-7-7-7-7-7-7-7-|-3-3-3-3-3-3-3-3-|
|-5-5-5-5-5-5-5-5-|-7-7-7-7-7-7-7-7-|-3-3-3-3-3-3-3-3-|
|-3-3-3-3-3-3-3-3-|-5-5-5-5-5-5-5-5-|-1-1-1-1-1-1-1-1-|

|-----------------|-----------------|-----------------|
|-----------------|-----------------|-----------------|
|-----------------|-----------------|-----------------|
|-5-5-5-5-x-3-3-3-|-5-5-5-5-x-3-3-3-|-5-5-5-5-x-3-3-3-|
|-5-5-5-5-x-3-3-3-|-5-5-5-5-x-3-3-3-|-5-5-5-5-x-3-3-3-|
|-3-3-3-3-x-1-1-1-|-3-3-3-3-x-1-1-1-|-3-3-3-3-x-1-1-1-|


post-chorus:
[ Tab from: http://www.guitartabs.cc/tabs/b/bamboo/mr_clay_tab_ver_3.html ]
|-----------------|-----------------|-----------------|-----------------|
|-----------------|-----------------|-----------------|-----------------|
|-----------------|-----------------|-----------------|-----------------|
|-7-7-7-7-7-7-7-7-|-7-7-7-7-7-7-7-7-|-7-7-7-7-7-7-7-7-|-7-7-7-7-7-7-7-7-|
|-7-7-7-7-7-7-7-7-|-7-7-7-7-7-7-7-7-|-7-7-7-7-7-7-7-7-|-7-7-7-7-7-7-7-7-|
|-5-5-5-5-5-5-5-5-|-6-6-6-6-6-6-6-6-|-7-7-7-7-7-7-7-7-|-6-6-6-6-6-6-6-6-|


verse3:

|-----------------|-----------------|-----------------|-----------------|
|-----------------|-----------------|-----------------|-----------------|
|-----------------|-----------------|-----------------|-----------------|(2x)
|-7-7-7-7-7-7-7-7-|-7-7-7-7-7-7-7-7-|-7-7-7-7-7-7-7-7-|-7-7-7-7-7-7-7-7-|
|-7-7-7-7-7-7-7-7-|-7-7-7-7-7-7-7-7-|-7-7-7-7-7-7-7-7-|-7-7-7-7-7-7-7-7-|
|-5-5-5-5-5-5-5-5-|-6-6-6-6-6-6-6-6-|-7-7-7-7-7-7-7-7-|-6-6-6-6-6-6-6-6-|

|-----------------|-----------------|-----------------|
|-----------------|-----------------|-----------------|
|-----------------|-----------------|-----------------|
|-7-7-7-7-7-7-7-7-|-7-7-7-7-7-7-7-7-|-7-7-7-7-7-7-7-7-|
|-7-7-7-7-7-7-7-7-|-7-7-7-7-7-7-7-7-|-7-7-7-7-7-7-7-7-|
|-5-5-5-5-5-5-5-5-|-6-6-6-6-6-6-6-6-|-7-7-7-7-7-7-7-7-|

|-----------------|-----------------|
|-----------------|-----------------|
|-----------------|-----------------|
|-3-3-3-3-3-3-3-3-|-5-5-5-5-5-5-5-5-|
|-3-3-3-3-3-3-3-3-|-5-5-5-5-5-5-5-5-|
|-1-1-1-1-1-1-1-1-|-3-3-3-3-3-3-3-3-|


(repeat chorus)

bridge:

|-------------------|-------------------|-------------------|-------------------|
|-------------------|-------------------|-------------------|-------------------|
|-------------------|-------------------|-------------------|-------------------|
|-5h7-7-55h7-7-55h7-|-5h7-7-55h7-7-55h7-|-5h7-7-55h7-7-55h7-|-5h7-7-55h7-7-55h7-|
|-5h7-7-55h7-7-55h7-|-5h7-7-55h7-7-55h7-|-5h7-7-55h7-7-55h7-|-5h7-7-55h7-7-55h7-|
|-5-----55-----55---|-5-----55-----55---|-5-----55-----55---|-5-----55-----55---|

|-------------|-------------|-------------|-------------|
|-------------|-------------|-------------|-------------|
|-------------|-------------|-------------|-------------|
|-5-5-5-5-5-5-|-7-7-7-7-7-7-|-3-3-3-3-3-3-|-5-5-5-5-5-5-|
|-5-5-5-5-5-5-|-7-7-7-7-7-7-|-3-3-3-3-3-3-|-5-5-5-5-5-5-|
|-3-3-3-3-3-3-|-5-5-5-5-5-5-|-1-1-1-1-1-1-|-3-3-3-3-3-3-|

|-------------|-------------|-------------|
|-------------|-------------|-------------|
|-------------|-------------|-------------|
|-5-5-5-5-5-5-|-7-7-7-7-7-7-|-3-3-3-3-3-3-|
|-5-5-5-5-5-5-|-7-7-7-7-7-7-|-3-3-3-3-3-3-|
|-3-3-3-3-3-3-|-5-5-5-5-5-5-|-1-1-1-1-1-1-|

|-------------|-------------|-------------|
|-------------|-------------|-------------|
|-------------|-------------|-------------|
|-5-5-5-x-3-3-|-5-5-5-x-3-3-|-5-5-5-x-3-3-|
|-5-5-5-x-3-3-|-5-5-5-x-3-3-|-5-5-5-x-3-3-|
|-3-3-3-x-1-1-|-3-3-3-x-1-1-|-3-3-3-x-1-1-|


|-----------------|-----------------|-----------------|-----------------|
|-----------------|-----------------|-----------------|-----------------|
|-----------------|-----------------|-----------------|-----------------|
|-7-7-7-7-7-7-7-7-|-7-7-7-7-7-7-7-7-|-7-7-7-7-7-7-7-7-|-7-7-7-7-7-7-7-7-|
|-7-7-7-7-7-7-7-7-|-7-7-7-7-7-7-7-7-|-7-7-7-7-7-7-7-7-|-7-7-7-7-7-7-7-7-|
|-5-5-5-5-5-5-5-5-|-6-6-6-6-6-6-6-6-|-7-7-7-7-7-7-7-7-|-6-6-6-6-6-6-6-6-|

|-----------------|
|-----------------|
|-----------------|
|-7~~-------------|
|-7~~-----(pause)-|
|-5~~-------------|


verse4:


|-----------------|-----------------|-----------------|-----------------|
|-----------------|-----------------|-----------------|-----------------|
|-----------------|-----------------|-----------------|-----------------|
|-7-7-7-7-7-7-7-7-|-7-7-7-7-7-7-7-7-|-7-7-7-7-7-7-7-7-|-7-7-7-7-7-7-7-7-|
|-7-7-7-7-7-7-7-7-|-7-7-7-7-7-7-7-7-|-7-7-7-7-7-7-7-7-|-7-7-7-7-7-7-7-7-|
|-5-5-5-5-5-5-5-5-|-6-6-6-6-6-6-6-6-|-7-7-7-7-7-7-7-7-|-6-6-6-6-6-6-6-6-|

|-----------------|-----------------|-----------------|
|-----------------|-----------------|-----------------|
|-----------------|-----------------|-----------------|
|-7-7-7-7-7-7-7-7-|-7-7-7-7-7-7-7-7-|-7-7-7-7-7-7-7-7-|
|-7-7-7-7-7-7-7-7-|-7-7-7-7-7-7-7-7-|-7-7-7-7-7-7-7-7-|
|-5-5-5-5-5-5-5-5-|-6-6-6-6-6-6-6-6-|-7-7-7-7-7-7-7-7-|

|-----------------|-----------------|
|-----------------|-----------------|
|-----------------|-----------------|
|-3-3-3-3-3-3-3-3-|-5-5-5-5-5-5-5-5-|
|-3-3-3-3-3-3-3-3-|-5-5-5-5-5-5-5-5-|
|-1-1-1-1-1-1-1-1-|-3-3-3-3-3-3-3-3-|


(repeat chorus)
Comments