Bamboo - Mr Clay Chords & Tabs

 

Mr Clay Chords & Tabs

Bamboo Chords & Tabs

Version: 2 Type: Bass Tab 0 ratings
1 star 2 stars 3 stars 4 stars 5 stars
comments

Mr Clay Bass Tab

4 string bass: EADG

INTRO 2x:
G|------------------------------------------|
D|--2-2-2--3-3-3--4-4-4--3-3-3--------------|
A|------------------------------------------|
E|------------------------------------------|
VERSE1 (2x):
Red sun dawn Guns are down
G|------------------------------------------|
D|--2-2-2--3-3-3--4-4-4--3-3-3--------------|
A|------------------------------------------|
E|------------------------------------------|
Im the war that comes to you the plague that follows through
G|--------------0-0-0-0---------------------|
D|---3-3-3-3-3------------------------------|
A|----------------------------- ------------|
E|------------------------------------------|
go to verse2:
verse 2:same w/ verse1

now the blind that follow you
will burn IN HELL with you
G|--------------0-0-0-0---------------------|
D|---3-3-3-3-3------------------------------|
A|----------------------------- ------------|
E|------------------------------------------|


CHORUS:
G|------------------------------------------|
D|--5-5-5-5---------------3-3-3-3--5-5-5-5--|
A|-------------6-6-6-6----------------------|
E|------------------------------------------|
(2x)

G|------------------------------------------|
D|----3-3-3-3--5-5-5-5----------------------|
A|------------------------------------------|
E|------------------------------------------|
(3x)
Verse 3 rap: same w/ verse 1 & 2
[ Tab from: http://www.guitartabs.cc/tabs/b/bamboo/mr_clay_btab_ver_2.html ]
after verse 3: CHORUS
Bridge: after Chorus2
G|------------------------------------------|
D|---7-7-7-7-7--5--7-7-7-7-7----------------|
A|------------------------------------------|
E|------------------------------------------|
(3x)

Bridge solo:
G|------------------------------------------|
D|--5-5--9-10-11--7-7--9-10-11--------------|
A|------------------------------------------|
E|------------------------------------------|

G|------------------------------------------|
D|--3-3--7-8-9--5-5--9-10-11----------------|
A|------------------------------------------|
E|------------------------------------------|

G|------------------------------------------|
D|--5-5--9-10-11--7-7--9-10-11--------------|
A|------------------------------------------|
E|------------------------------------------|

G|---------------------------------------------|
D|--3-3--7-8-9--5------------------------------|
A|---------------------------------------------|
E|---------------------------------------------|


G|------------------------------------------|
D|--3-3-3-3-5-5-5-5-------------------------|
A|------------------------------------------|
E|------------------------------------------|
(3x)

G|-----------------------------------------------|
D|--p2-p3-p4-3-----------------------------------|
A|-----------------------------------------------|
E|-----------------------------------------------|
Stop

Verse 4: same w/ verse1,2,3
After verse4 CHorus!

This my first time to write a tab! Tinging ko 99.9% tama to!!!
Listen to the song pra mkuha nyo ung timing!!! sensya mga tol kng mgulo!!! basta 
nyo ung kanta pra mas mdli!!!!

Any comments and suggestions: email me cristobalmc_7@yahoo.com
Pki rate n lng dN!!! MARCK_SAYS ROCKS!!!! ROCK ON!!!!
Comments