Bamboo - Hallelujah Chords & Tabs

 

Hallelujah Chords & Tabs

Bamboo Chords & Tabs

Version: 6 Type: Tab 0 ratings
1 star 2 stars 3 stars 4 stars 5 stars
comments

Hallelujah Tab

   
Mauna ung bass at drums


Intro

e---------------------------------------------------------------|
b---------------------------------------------------------------|
g---------------------------------------------------------------|
d-----------------------------------------------(2x)------------|
a-----------8-8-8-888-10-10-7-7---------------------------------|
E---5-5-55-8--------------------8-8--8-10-7-7-------------------|

verse
wah-wah


     Am          F           C          G
e------------------------------------------------------------------|
b----------------x-----------*-------------------------------------|
g----x-----------12----------5-------------------------------------|
d----7-----------12----------5----------5-------(4x)---------------|
a----7-----------10----------3----------5--------------------------|
E----5----------------------------------3--------------------------|

ung pag katapos nyan

e--------------------------------------------------------------|
b------------8-------------------------------------------------|
g---------5----------(2x sabay sa bagsak ng Am)----------------|
d------7-------------------------------------------------------|
a--------------------------------------------------------------|
E--------------------------------------------------------------|

  Verse 2

e---------------------------------------------------------------|
b---------------------------------------------------------------|
g---------------------------------------------------------------|
d------------------------------------------------(4x)-----------| Palm Mute
a-----------8-8-8-888-10-10-7-7---------------------------------|
E---5-5-55-8--------------------8-8--8-10-7-7-------------------|

Pre chorus

     F                C         G
e----1----------------0---------3------------------------------------|
b----1----------------1---------3------------------------------------|
g----5----------------0---------0------------------------------------|
d----3----------------2---------0------------------------------------|
a----3----------------3---------2------------------------------------|
E----1----------------x---------3------------------------------------|

       May kasama ka kapatid kaibigan
      D                         F
e-----------------------------------------------------------------------|
b-----------------------------------------------------------------------|
g-----7-------------------------10--------------------------------------|Palm mute
d-----7-------------------------10--------------------------------------|
a-----5--------------------------8--------------------------------------|
E-----------------------------------------------------------------------|
      Hanggat akoy humihinga    may pagasa ka

[ Tab from: http://www.guitartabs.cc/tabs/b/bamboo/hallelujah_tab_ver_6.html ]
      Am           F           C           G           F
e-------------------------------------------------------------------------|
b-------------------------------------------------------------------------|
g------------------5-----------5-----------------------5------------------|
d-----7------------3-----------5-----------5-----------3------------------|
a-----7------------3-----------3-----------5-----------3------------------|
E-----5------------1-----------------------3-----------1------------------|

        ohoh       oooh       halel        halelujah


      Am                        F           C           G         F
e-------------------------------------------------------------------------------------|
b-------------------------------------------------------------------------------------|
g-------------------------------5-----------5--------------------5--------------------|
d-----7-------------------------3-----------5-----------5--------3--------------------|
a-----7-------------------------3-----------3-----------5--------3--------------------|
E-----5-------------------------1-----------------------3--------1--------------------|


       sinong saba singung galit            haleluja     halelujaaah

e-----------------------------------------------------------------------|
b-----------------------------------------------------------------------|
g-----------------------------------------------------------------------|
d--2-------3-------------5----------------------------------------------|
a--2-------3-(palm mute)-5----------------------------------------------|
E--0-------1-------------3----------------------------------------------|

  Hale


Pagkatapos ng beat at bass

e-----------------------------------------------------------------------------|
b-----5-----5h6---5h6--5--3---------------------------------------------------|
g-----5-----5-----5----5--9---------------------------------------------------|
d-----7h9-7----7--7-----------------------------------------------------------|
a-----------------------------------------------------------------------------|
E-----------------------------------------------------------------------------|

Pagkatapos ng rap

e--------------------------------------------------------------|
b------------8-------------------------------------------------|
g---------5----------(2x sabay sa bagsak ng Am)----------------|
d------7-------------------------------------------------------|
a--------------------------------------------------------------|
E--------------------------------------------------------------|

tpos ulit ulit lng as long as you know the song format

lead
 wah -wah
e--------------------------------------------------------------------------------|
b------------8-------------8-----------------------------------------------------|
g---------5-----5------55-----5--------------------------------------------------|
d------/7----------/7-----------7----7h77h77-------------------------------------|
a--------------------------------------------------------------------------------|
E--------------------------------------------------------------------------------|

yan lng ung umpisa tamad na ako magtab 11:15.....irate nyo na lng....pasokan na 
me or sumthing Vansvil@yahoo.com......astig
THE SALPICADOS....astig tong kantang toh.....
Comments