Bamboo - Hallelujah Chords & Tabs

 

Hallelujah Chords & Tabs

Bamboo Chords & Tabs

Version: 4 Type: Tab 0 ratings
1 star 2 stars 3 stars 4 stars 5 stars
comments

Hallelujah Tab

   
-----------------------------------------------------------------------------
			     Hallelujah - Bamboo
-----------------------------------------------------------------------------
Tabbed by: Sean Noronha
Email: seanlester14@hotmail.com

Tuning: ebgdae

I think the intro for the guitar goes like this.

e|------3-----3-------------------------------------------------------------|
B|---1-----1-----------------------------------------------------------------
G|-2-----2------------------------------------------------------------------|
D|--------------------------------------------------------------------------|
A|--------------------------------------------------------------------------|
E|--------------------------------------------------------------------------|

Then the intro continues like this

e|--------------------------------------------------------------------------|
B|--------------------------------------------------------------------------|
G|------------10-10-10-10--12-12--9-9--5-5-5--7-7--4-4----------------------|
D|-7-7-7-7-7--10-10-10-10--12-12--9-9--5-5-5--7-7--4-4--5-5-----------------|
A|-7-7-7-7-7--8--8--8--8---10-10--7-7--3-3-3--5-5--2-2--5-5-----------------|
E|-5-5-5-5-5--------------------------------------------3-3-----------------|

I feel the verse is played by the bass only

Verse
[ Tab from: http://www.guitartabs.cc/tabs/b/bamboo/hallelujah_tab_ver_4.html ]
e|--------------------------------------------------------------------------|
B|--------------------------------------------------------------------------|
G|--------------------------------------------------------------------------|
D|--------------------------------------------------------------------------|
A|----------8-8-8-8--10-10--7-7--3-3-3--5-5--2-2----------------------------|
E|5-5-5-5-5--------------------------------------3-3------------------------|

Bridge
   G	               C
e|-3------------------------------------------------------------------------|
B|-3-------------------1----------------------------------------------------|
G|--------------------------------77777777777777777777777777777-------------|
D|---------------------2----------77777777777777777777777777777-------------|
A|-2-------------------3----------55555555555555555555555555555-------------|
E|-3------------------------------------------------------------------------|
 May kasama ka kapatid   Kaibigan Hanngat ako'y......May pag-asa pa

Chorus

e|--------------------------------------------------------------------------|
B|--------------------------------------------------------------------------|
G|---------------------------------55555555---------------------------------|
D|-777777777777777-333333333333333-55555555-55555555-333333333333333--------|
A|-777777777777777-333333333333333-33333333-55555555-333333333333333--------|
E|-555555555555555-111111111111111----------33333333-111111111111111--------|
   Whooaaaaaaaaaaaaaah Whooooaaaaa Halleeluuuuu Halleluuuuuuuujaaaah


Ok i really don't know if this sounds correct, but i suggest in order play this tab
properly, you need to get the timing right. And the only way to get the timing right
is by listning to the song. Soo i suggest u listen to the song and play this tab along
with it!
Also for the bridge, im not sure if the first chord is correct. And when bamboo
sings "Hanngat ako'y" till "pag-asa pa" i think he's just strumming the chord
I would like to add that this is my first tab, so it has its flaws. If you want to
suggest anything to me about this tab feel free to email me at seanlester14@hotmail.com
The Song Hallelujah ROCKS! hope you enjoy this tab :)
Comments