Bamboo - 04 Chords & Tabs

 

04 Chords & Tabs

Bamboo Chords & Tabs

Version: 1 Type: Tab 0 ratings
1 star 2 stars 3 stars 4 stars 5 stars
comments

04 Tab

   
Artist: bamboo
Song:04
Album:light peace love
tabbed by: stanley tan!!! ng ceu

standard tuning(EADGBe)

intro: 2x
verse: 
     G            D        Am      C
e|----3------------5------------------------| 
B|----3------------3--------1-------1----1--|
G|-------TAP---------TAP----2--TAP-------0--|   4x     
D|----------------------------------2----2--|
A|------------(2)5--------0---------3--3----|
E|--3---------------------------------------|

ung pangapat na ulit baguhin mo ung last chord na C gawin mong F

[ Tab from: http://www.guitartabs.cc/tabs/b/bamboo/04_tab.html ]
     G            D        F
e|----3------------5---------------------| 
B|----3------------3---------------------|
G|-------TAP---------TAP-----------------|
D|---------------------------3--TAP-3----|
A|------------(2)5-----------3------3----|
E|--3----------------------1--------1----|
    G            D        F
e|----3------------5----------------------------| 
B|----3------------3----------------------------|
G|-------TAP---------TAP-------------2----2--0--|
D|---------------------------3--TAP--3----3--0--|
A|------------(2)5-----------3------------------|
E|--3----------------------1---------1--1-------|

     G            D        F
e|----3------------5--------------1--| 
B|----3------------3-------------1---|
G|-------TAP---------TAP--------2----|
D|-----------------------------3-----|
A|------------(2)5------------3------|
E|--3----------------------1---------|

mga kabanda ko sisikat din tau!!!!abangan nu ang bandang merengue!!!hehe!
Vocalist: Daryl lagos
bassist: james tan
drummer: jason lee
lead guitarist: stanley tan
guitarist: richard sydeco
Comments